Guitaretab - guitar tabs
Song name
# A B C D E F G H I J K L M N O P Q R S T U V W X Y Z

Len - Get Your Legs Broke tab

==========Intro==========
NO MUSIC

==========Funny==========

Intro
|---------------------------------|
|-2-2-2-2-2-2-2-2-2-2-2-2-2-2-2-2-|
|-2-2-2-2-2-2-2-2-2-2-2-2-2-2-2-2-|
|-0-0-0-0-0-0-0-0-0-0-0-0-0-0-0-0-|
|---------------------------------|
|---------------------------------|

Verse
|-----------------------------------------------------------------|
|-----------------------------------------------------------------|
|-----------------------------------------------------------------|
|-6-6-6-6-6-6-6-6-9-9-9-9-9-9-9-9-8-8-8-8-8-8-8-8-9-9-9-9-9-9-9-9-|
|-6-6-6-6-6-6-6-6-9-9-9-9-9-9-9-9-8-8-8-8-8-8-8-8-9-9-9-9-9-9-9-9-|
|-4-4-4-4-4-4-4-4-7-7-7-7-7-7-7-7-6-6-6-6-6-6-6-6-7-7-7-7-7-7-7-7-|

|-----------------------------------------------------------------|
|-----------------------------------------------------------------|
|-----------------------------------------------------------------|
|-6-6-6-6-6-6-6-6-9-9-9-9-9-9-9-9-8-8-8-8-8-8-8-8-8-8-8-8-8-8-8-8-|
|-6-6-6-6-6-6-6-6-9-9-9-9-9-9-9-9-8-8-8-8-8-8-8-8-8-8-8-8-8-8-8-8-|
|-4-4-4-4-4-4-4-4-7-7-7-7-7-7-7-7-6-6-6-6-6-6-6-6-6-6-6-6-6-6-6-6-|

Chorus
|-----------------------------------------------------------------|
|-----------------------------------------------------------------|
|-----------------------------------------------------------------|
|-6-6-6-6-9-9-9-9-6-6-6-6-9-9-9-9-8-8-8-8-8-8-8-8-8-8-8-8-8-8-8-8-|
|-6-6-6-6-9-9-9-9-6-6-6-6-9-9-9-9-8-8-8-8-8-8-8-8-8-8-8-8-8-8-8-8-|
|-4-4-4-4-7-7-7-7-4-4-4-4-7-7-7-7-6-6-6-6-6-6-6-6-6-6-6-6-6-6-6-6-|

==========Smarty Pants==========
Intro/Verse
|-----------------------------------------------------------------|
|-8-8-8-8-8-8-8-8-7-7-7-7-7-7-7-7-5-5-5-5-5-5-5-5-5-5-5-5-5-5-5-5-|
|-7-7-7-7-7-7-7-7-6-6-6-6-6-6-6-6-4-4-4-4-4-4-4-4-4-4-4-4-4-4-4-4-|
|-5-5-5-5-5-5-5-5-4-4-4-4-4-4-4-4-2-2-2-2-2-2-2-2-2-2-2-2-2-2-2-2-|
|-5-5-5-5-5-5-5-5-4-4-4-4-4-4-4-4-2-2-2-2-2-2-2-2-2-2-2-2-2-2-2-2-|
|-----------------------------------------------------------------|

Pre Chorus (the part where Sharon sings just before the chorus)
|-------------------------------------------------|
|-------------------------------------------------|
|-------------------------------------------------|
|-------------------------------------------------|
|-5-5---5-3---5-5---5-3---5-5---5-3---5-5---5-3---|
|-------------------------------------------------|

When she repeats the pre chorus it switches to this
|-------------------------------------------------|
|-------------------------------------------------|
|-------------------------------------------------|
|-------------------------------------------------|
|-7-7---7-9---7-7---7-9---7-7---7-9---7-7---7-9---|
|-------------------------------------------------|

Chorus
|-----------------------------------------------------------------|
|-----------------------------------------------------------------|
|-----------------------------------------------------------------|
|-8-8-8-8-8-8-8-8-7-7-7-7-7-7-7-7-5-5-5-5-6-5-5-5-5-5-5-5-6-5-5-5-|
|-7-7-7-7-7-7-7-7-6-6-6-6-6-6-6-6-4-4-4-4-5-4-4-4-4-4-4-4-5-4-4-4-|
|-5-5-5-5-5-5-5-5-4-4-4-4-4-4-4-4-2-2-2-2-3-2-2-2-2-2-2-2-3-2-2-2-|

Before the second verse play this
|-------------------------|
|-10-10-10-10-10-10-10-10-|
|--9--9--9--9--9--9--9--9-|
|--7--7--7--7--7--7--7--7-|
|--7--7--7--7--7--7--7--7-|
|-------------------------|

After the Chorus
|-----------------------------------------------------------------|
|-8-8-8-8-8-8-8-8-8-8-8-8-8-8-8-8-5-5-5-5-5-5-5-5-5-5-5-5-5-5-5-5-|
|-7-7-7-7-7-7-7-7-7-7-7-7-7-7-7-7-4-4-4-4-4-4-4-4-4-4-4-4-4-4-4-4-|
|-5-5-5-5-5-5-5-5-5-5-5-5-5-5-5-5-2-2-2-2-2-2-2-2-2-2-2-2-2-2-2-2-|
|-5-5-5-5-5-5-5-5-5-5-5-5-5-5-5-5-2-2-2-2-2-2-2-2-2-2-2-2-2-2-2-2-|
|-----------------------------------------------------------------|

Outro - Guitar 1
|-----------------------------------------------------------------|
|-----------------------------------------------------------------|
|-----------------------------------------------------------------|
|-5-5-5-5-5-5-5-5-5-5-5-5-5-5-5-5-8-8-8-8-8-8-8-8-8-8-8-8-8-8-8-8-|
|-4-4-4-4-4-4-4-4-4-4-4-4-4-4-4-4-7-7-7-7-7-7-7-7-7-7-7-7-7-7-7-7-|
|-2-2-2-2-2-2-2-2-2-2-2-2-2-2-2-2-5-5-5-5-5-5-5-5-5-5-5-5-5-5-5-5-|

Outro - Guitar 2 (comes in after 2xs of guitar 1s riff)
|-----------------------------------------------------------------|
|-5-5-5-5-5-5-5-5-5-5-5-5-5-5-5-5-8-8-8-8-8-8-8-8-8-8-8-8-8-8-8-8-|
|-4-4-4-4-4-4-4-4-4-4-4-4-4-4-4-4-7-7-7-7-7-7-7-7-7-7-7-7-7-7-7-7-|
|-2-2-2-2-2-2-2-2-2-2-2-2-2-2-2-2-5-5-5-5-5-5-5-5-5-5-5-5-5-5-5-5-|
|-2-2-2-2-2-2-2-2-2-2-2-2-2-2-2-2-5-5-5-5-5-5-5-5-5-5-5-5-5-5-5-5-|
|-----------------------------------------------------------------|

Outro - Guitar 3 (comes in at the very end of the song)
|-------------------------------------------------------------------|
|-9-9h11p9-9-9h11p9-11-11-11-11-11-11-11-11-11-11-11-11-11-11-11-11-|
|-------------------------------------------------------------------|
|-------------------------------------------------------------------|
|-------------------------------------------------------------------|
|-------------------------------------------------------------------|

|-------------------------------------------------|
|-12-12-12-12-12-12-12-12-12-12-12-12-12-12-12-12-|
|-------------------------------------------------|
|-------------------------------------------------|
|-------------------------------------------------|
|-------------------------------------------------|

|-------------------------------------------------|
|-11-11-11-11-11-11-11-11-11-11-11-11-11-11-11-11-|
|-------------------------------------------------|
|-------------------------------------------------|
|-------------------------------------------------|
|-------------------------------------------------|

|-------------------------------------------------|
|-12-12-12-12-12-12-12-12-12-12-12-12-12-12-12-12-|
|-------------------------------------------------|
|-------------------------------------------------|
|-------------------------------------------------|
|-------------------------------------------------|

Note: all the 11s and 12s after the hammer ons and pull offs are done with a full bend

==========Trip to the Moon==========

Intro/Chorus
|---------------------------------|
|---------------------------------|
|---------------------------------|
|-7-7-7-7-7-7-7-7-4-4-4-4-4-4-4-4-|
|-5-5-5-5-5-5-5-5-2-2-2-2-2-2-2-2-|
|---------------------------------|

Verse (Palm-Muted)
|---------------------------------|
|---------------------------------|
|---------------------------------|
|-7-7-7-7-7-7-7-7-4-4-4-4-4-4-4-4-|
|-5-5-5-5-5-5-5-5-2-2-2-2-2-2-2-2-|
|---------------------------------|

Interlude
|---------------------|
|---------------------|
|-9--9-9--9-7--7-7--7-|
|-9--9-9--9-7--7-7--7-|
|---------------------|
|---------------------|

==========Saturday Morning==========

Intro/Verse
|-------------------------------|
|-------------------------------|
|-------------------------------|
|-----7-----7--------5-----5----|
|-5-5---5-5----5-3-3---3-3----3-|
|-------------------------------|
[ Tab from: http://www.guitaretab.com/l/len/115471.html ]
Chorus
|---------------------------------|
|---------------------------------|
|---------------------------------|
|-----7-----7-7-7/9-9-9-9-9-9-9-9-|
|-5-5-5-5-5-5-5-5/7-7-7-7-7-7-7-7-|
|---------------------------------|

==========Granny Love==========

Intro
|-------------------------|
|-------------------------|
|-7-7-7-7-7-7-7-7-6-6-6-6-|
|-7-7-7-7-7-7-7-7-6-6-6-6-|
|-5-5-5-5-5-5-5-5-4-4-4-4-|
|-------------------------|

Verse
|-----------------------------------------------------------------|
|-----------------------------------------------------------------|
|-7-7-7-7-7-7-7-7-6-6-6-6-6-6-6-6-4-4-4-4-4-4-4-4-4-4-4-4-4-4-4-4-|
|-7-7-7-7-7-7-7-7-6-6-6-6-6-6-6-6-4-4-4-4-4-4-4-4-4-4-4-4-4-4-4-4-|
|-5-5-5-5-5-5-5-5-4-4-4-4-4-4-4-4-2-2-2-2-2-2-2-2-2-2-2-2-2-2-2-2-|
|-----------------------------------------------------------------|

Solo
|-----------------------------------------------------------------|
|-6-6-5-5-4-4-3-3-4-4-3-3-4-4-3-3-9-9-8-8-7-7-6-6-7-7-6-6-7-7-6-6-|
|-----------------------------------------------------------------|
|-----------------------------------------------------------------|
|-----------------------------------------------------------------|
|-----------------------------------------------------------------|

|-----------------------------------------------------------------|
|-6-6-5-5-4-4-3-3-4-4-3-3-4-4-3-3-9-9-8-8-7-7-6-6-7-7-6-6-7-7-6-6-|
|-----------------------------------------------------------------|
|-----------------------------------------------------------------|
|-----------------------------------------------------------------|
|-----------------------------------------------------------------|

Chorus
|-------------------------------------------------------------------------|
|-------------------------------------------------------------------------|
|-------------------------------------------------------------------------|
|-7-7-7-7-7-7-7-7-9-9-9-9-9-9-9-9-11-11-11-11-11-11-11-11-9-9-9-9-9-9-9-9-|
|-5-5-5-5-5-5-5-5-7-7-7-7-7-7-7-7--9--9--9--9--9--9--9--9-7-7-7-7-7-7-7-7-|
|-------------------------------------------------------------------------|

After the last chord play this
|------|
|------|
|------|
|-7*-5*-
|------|
|------|

==========Grand Theft Snowboard==========

No Guitar

==========Trillion Daze==========

This is the first note before the bass and drums come in
|----
|-10-
|----
|----
|----
|----

Intro/Verse
|-----------------------------------------------------------------|
|-----------------------------------------------------------------|
|-----------------------------------------------------------------|
|-6-6-6-6-6-6-6-6-4-4-4-4-4-4-4-4-7-7-7-7-7-7-7-7-7-7-7-7-7-7-7-7-|
|-6-6-6-6-6-6-6-6-4-4-4-4-4-4-4-4-7-7-7-7-7-7-7-7-7-7-7-7-7-7-7-7-|
|-4-4-4-4-4-4-4-4-2-2-2-2-2-2-2-2-5-5-5-5-5-5-5-5-5-5-5-5-5-5-5-5-|

Solo Over Intro/Chorus
|-------------------------------------------------------|
|-12-12-13-13-12-12-11-10----12-12-13-13-12-12-11-10----|
|-------------------------------------------------------|
|-------------------------------------------------------|
|-------------------------------------------------------|
|-------------------------------------------------------|

Pre Chorus
|-----------------------------------------------------------------|
|-----------------------------------------------------------------|
|-8-8-8-8-8-8-8-8-7-7-7-7-7-7-7-7---------------------------------|
|-9-9-9-9-9-9-9-9-8-8-8-8-8-8-8-8-6-6-6-6-6-6-6-6-4-4-4-4-4-4-4-4-|
|-9-9-9-9-9-9-9-9-8-8-8-8-8-8-8-8-6-6-6-6-6-6-6-6-4-4-4-4-4-4-4-4-|
|-7-7-7-7-7-7-7-7-6-6-6-6-6-6-6-6-4-4-4-4-4-4-4-4-2-2-2-2-2-2-2-2-|

==========Get Your Legs Broke==========

Intro
|-------------------------------------|
|-------------------------------------|
|-9-8-9-8-9-8-11-11-9-8-9-8-9-8-11-11-|
|-7-7-7-7-7-7--7--7-7-7-7-7-7-7--7--7-|
|-------------------------------------|
|-------------------------------------|

Verse
|----------------------------------------------------------|
|----------------------------------------------------------|
|----------------------------------------------------------|
|----------------------------------------------------------|
|-5-7-8--5-7-8--5-7-8--5-7-8--5-7-8--5-7-8--5-7-8--5-7-8-7-|
|----------------------------------------------------------|

==========Shes Not==========

Chorus (Sharon Only/Let Last Chord Ring)
|-------------------|
|-------------------|
|-6-6-6-6-6-6-6-6-6-|
|-6-6-6-6-6-6-6-6-6-|
|-4-4-4-4-4-4-4-4-4-|
|-------------------|

Chorus (Marc & Sharon/Palm-Muted Except First of Each Chord)
|-----------------------------------------------------------------|
|-----------------------------------------------------------------|
|-6-6-6-6-6-6-6-6-6-6-6-6-6-6-6-6-4-4-4-4-4-4-4-4-4-4-4-4-4-4-4-4-|
|-6-6-6-6-6-6-6-6-6-6-6-6-6-6-6-6-4-4-4-4-4-4-4-4-4-4-4-4-4-4-4-4-|
|-4-4-4-4-4-4-4-4-4-4-4-4-4-4-4-4-2-2-2-2-2-2-2-2-2-2-2-2-2-2-2-2-|
|-----------------------------------------------------------------|

Verse
|-----------------------------------------------------------------|
|-----------------------------------------------------------------|
|-6-6-6-6-6-6-6-6-6-6-6-6-6-6-6-6-6-6-6-6-6-6-6-6-6-6-6-6-6-6-6-6-|
|-6-6-6-6-6-6-6-6-6-6-6-6-6-6-6-6-6-6-6-6-6-6-6-6-6-6-6-6-6-6-6-6-|
|-4-4-4-4-4-4-4-4-4-4-4-4-4-4-4-4-4-4-4-4-4-4-4-4-4-4-4-4-4-4-4-4-|
|-----------------------------------------------------------------|

|-----------------------------------------------------------------|
|-----------------------------------------------------------------|
|-7-7-7-7-7-7-7-7-7-7-7-7-7-7-7-7-7-7-7-7-7-7-7-7-7-7-7-7-7-7-7-7-|
|-7-7-7-7-7-7-7-7-7-7-7-7-7-7-7-7-7-7-7-7-7-7-7-7-7-7-7-7-7-7-7-7-|
|-5-5-5-5-5-5-5-5-5-5-5-5-5-5-5-5-5-5-5-5-5-5-5-5-5-5-5-5-5-5-5-5-|
|-----------------------------------------------------------------|

==========Choc Loco==========

Intro
|---------------------------------------------------------------------------|
|-14--15--14--13----12--11--12--13----14--15--14--13--12--11----10--9--8--9-|
|-14--14--14--13----12--11--12--13----14--14--14--13--12--11----10--9--8--9-|
|---------------------------------------------------------------------------|
|---------------------------------------------------------------------------|
|---------------------------------------------------------------------------|

Verse
|-----------------------------------------------------------------------------|
|-14--15--14----13--12--13----14--15--14--15---13---12----9--8--9----9--8--9--|
|-14--14--14----13--12--13----14--14--14--14---13---12----9--8--9----9--8--9--|
|-----------------------------------------------------------------------------|
|-----------------------------------------------------------------------------|
|-----------------------------------------------------------------------------|

==========Bocci Balls==========

Intro
|------------------------------------|
|------------------------------------|
|-7-------7--------7--------7--------|
|-7-------7--------7--------7--------|
|-5-------5--------5--------5--------|
|------------------------------------|

Verse
|---------------------------------|
|---------------------------------|
|-7-7-7-7-7-7-7-7-6-6-6-6-6-6-6-6-|
|-7-7-7-7-7-7-7-7-6-6-6-6-6-6-6-6-|
|-5-5-5-5-5-5-5-5-4-4-4-4-4-4-4-4-|
|---------------------------------|


Bridge
Marc messing with some sounds and effects on guitar

==========Drunken Style==========

Its just them drunk messing with a piano and guitar and saying random shit for 12 minutes
Related for Get Your Legs Broke tab