Guitaretab - guitar tabs
Song name
# A B C D E F G H I J K L M N O P Q R S T U V W X Y Z
Home / L / Len / Superstar tab

Len - Superstar tab

==========Intro==========

No Guitar

=========Candy Pop==========

Intro/Pre Chorus
|-----------------------------------------------------------------|
|-----------------------------------------------------------------|
|-----------------------------------------------------------------|
|-5-5-5-5-5-5-5-5-9-9-9-9-9-9-9-9-6-6-6-6-6-6-6-6-4-4-4-4-4-4-4-4-|
|-5-5-5-5-5-5-5-5-9-9-9-9-9-9-9-9-6-6-6-6-6-6-6-6-4-4-4-4-4-4-4-4-|
|-3-3-3-3-3-3-3-3-7-7-7-7-7-7-7-7-4-4-4-4-4-4-4-4-2-2-2-2-2-2-2-2-|

Verses 1 and 2 (on the 9ís bend them slowly to a full bend, hold then slide down to the 7ís)
|-------------------------------|
|-------------------------------|
|-9--------/7----------9-----/7-|
|-------------------------------|
|-------------------------------|
|-------------------------------|

Chorus
|-----------------------------------------------------------------|
|-----------------------------------------------------------------|
|-----------------------------------------------------------------|
|-6-6-6-6-6-6-6-6-6-6-6-6-6-6-6-6-7-7-7-7-7-7-7-7-7-7-7-7-7-7-7-7-|
|-6-6-6-6-6-6-6-6-6-6-6-6-6-6-6-6-7-7-7-7-7-7-7-7-7-7-7-7-7-7-7-7-|
|-4-4-4-4-4-4-4-4-4-4-4-4-4-4-4-4-5-5-5-5-5-5-5-5-5-5-5-5-5-5-5-5-|

Solo
|--------------------------------------------------------------------------------------|
|-9fb-9fb-9fb-9fb-9hb-9--9fb-9fb-9fb-9fb-9hb-9--9fb-9fb-9fb-9fb-9hb-9--7-7-7-7-7-7-7-7-|
|--------------------------------------------------------------------------------------|
|--------------------------------------------------------------------------------------|
|--------------------------------------------------------------------------------------|
|--------------------------------------------------------------------------------------|

Verse 3 (Palm-Muted)
|-----------------------------------------------------------------|
|-----------------------------------------------------------------|
|-----------------------------------------------------------------|
|-5-5-5-5-5-5-5-5-9-9-9-9-9-9-9-9-9-9-9-9-9-9-9-9-6-6-6-6-6-6-6-6-|
|-5-5-5-5-5-5-5-5-9-9-9-9-9-9-9-9-9-9-9-9-9-9-9-9-6-6-6-6-6-6-6-6-|
|-3-3-3-3-3-3-3-3-7-7-7-7-7-7-7-7-7-7-7-7-7-7-7-7-4-4-4-4-4-4-4-4-|

==========Stray==========

Intro
|------------------------------------------------------------------------------------------------|
|------------------------------------------------------------------------------------------------|
|-16-16-16-16-16-16-16-16-16-16-16-16-16-16-16-16-14-14-14-14-14-14-14-14-15-15-15-15-15-15-15-15|
|--x--x--x--x--x--x--x--x--x--x--x--x--x--x--x--x--x--x--x--x--x--x--x--x--x--x--x--x--x--x--x--x|
|-14-14-14-14-14-14-14-14-14-14-14-14-14-14-14-14-12-12-12-12-12-12-12-12-13-13-13-13-13-13-13-13|
|------------------------------------------------------------------------------------------------|

Pre Verse/Chorus
|---------------------------------|
|---------------------------------|
|---------------------------------|
|-7-7-7-7-7-7-7-7-6-6-6-6-6-6-6-6-|
|-5-5-5-5-5-5-5-5-4-4-4-4-4-4-4-4-|
|---------------------------------|

Verse
|-----------------------------------------------------------------|
|-----------------------------------------------------------------|
|-----------------------------------------------------------------|
|-6-6-6-6-6-6-6-6-7-7-7-7-7-7-7-7-9-9-9-9-9-9-9-9-9-9-9-9-9-9-9-9-|
|-6-6-6-6-6-6-6-6-7-7-7-7-7-7-7-7-9-9-9-9-9-9-9-9-9-9-9-9-9-9-9-9-|
|-4-4-4-4-4-4-4-4-5-5-5-5-5-5-5-5-7-7-7-7-7-7-7-7-7-7-7-7-7-7-7-7-|

Interlude after Chorus
|---------|
|---------|
|-4-4-5-6-|
|---------|
|---------|
|---------|

Play This after the Second Chorus
|---------------------------------|
|---------------------------------|
|---------------------------------|
|-6-6-6-6-6-6-6-6-6-6-6-6-6-6-6-6-|
|-4-4-4-4-4-4-4-4-4-4-4-4-4-4-4-4-|
|---------------------------------|

==========My Damn Itch==========

Intro/Verse
|--------------------------|
|--------------------------|
|--------------------------|
|-5-5----5-5----5-5----5-5-|
|-3-3----3-3----3-3----3-3-|
|--------------------------|

Chorus
|---------------------------------|
|---------------------------------|
|---------------------------------|
|-7-7-7-7-6-6-6-6-7-7-7-7-6-6-6-6-|
|-5-5-5-5-4-4-4-4-5-5-5-5-4-4-4-4-|
|---------------------------------|

==========Wiggle==========

No Guitar

==========Momís Place/Reeker==========

Verse
|----------------------------------------------------------------------------|
|----------------------------------------------------------------------------|
|----------------------------------------------------------------------------|
|-6-6-6-6-6-6-6-6-6-6-6-6-6-6-6-6-6-6-6-6-5-5-5-5-5-5-5-5-5-5--5-5--5-5--5-5-|
|-6-6-6-6-6-6-6-6-6-6-6-6-6-6-6-6-6-6-6-6-5-5-5-5-5-5-5-5-5-5--5-5--5-5--5-5-|
|-4-4-4-4-4-4-4-4-4-4-4-4-4-4-4-4-4-4-4-4-3-3-3-3-3-3-3-3-3-3--3-3--3-3--3-3-|
[ Tab from: http://www.guitaretab.com/l/len/172678.html ]
|------------------------------------------------------------|
|------------------------------------------------------------|
|------------------------------------------------------------|
|-6-6-6-6-6-6-6-6-6-6-6-6-6-6-6-6-6-6-6-6-5-5--5-5--5-5--5-5-|
|-6-6-6-6-6-6-6-6-6-6-6-6-6-6-6-6-6-6-6-6-5-5--5-5--5-5--5-5-|
|-4-4-4-4-4-4-4-4-4-4-4-4-4-4-4-4-4-4-4-4-3-3--3-3--3-3--3-3-|

Chorus
|---------------------|
|---------------------|
|---------------------|
|-6-6--7-7--5-5--5-5--|
|-6-6--7-7--5-5--5-5--|
|-4-4--5-5--3-3--3-3--|

Reeker plays this throughout it when marc sings
|---------------------------------|
|---------------------------------|
|---------------------------------|
|-6-6-6-6-5-5-5-5-6-6-6-6-5-5-5-5-|
|-6-6-6-6-5-5-5-5-6-6-6-6-5-5-5-5-|
|-4-4-4-4-3-3-3-3-4-4-4-4-3-3-3-3-|

==========JonesíN==========

Intro
|-------------------------------------|
|-------------------------------------|
|-------------------------------------|
|-6--------4--------5--------7--------|
|-4--------2--------3--------5--------|
|-------------------------------------|

Verse/Chorus
|---------------------------------|
|---------------------------------|
|---------------------------------|
|-6-6-6-6-4-4-4-4-5-5-5-5-7-7-7-7-|
|-4-4-4-4-2-2-2-2-3-3-3-3-5-5-5-5-|
|---------------------------------|

==========Slacker==========

Intro
|-------------------------------------------------------|
|-------------------------------------------------------|
|-6--6--6-6-6-4--4-4-4-4-4-4-7--7--7-7-7-9--9-9-9-9-9-9-|
|-4--4--4-4-4-2--2-2-2-2-2-2-5--5--5-5-5-7--7-7-7-7-7-7-|
|-------------------------------------------------------|
|-------------------------------------------------------|

Intro
|-------------------------------------------------------|
|-------------------------------------------------------|
|-------------------------------------------------------|
|-------------------------------------------------------|
|-6--6--6-6-6-4--4-4-4-4-4-4-7--7--7-7-7-4--4-4-4-4-4-4-|
|-4--4--4-4-4-2--2-2-2-2-2-2-5--5--5-5-5-2--2-2-2-2-2-2-|

Pre Chorus
|-------------------------------------------------------|
|-------------------------------------------------------|
|-------------------------------------------------------|
|-------------------------------------------------------|
|-6--6--6-6-6-4--4-4-4-4-4-4-7--7--7-7-7-4--4-4-4-4-4-4-|
|-4--4--4-4-4-2--2-2-2-2-2-2-5--5--5-5-5-2--2-2-2-2-2-2-|

|-------------------------------------------------------|
|-------------------------------------------------------|
|-------------------------------------------------------|
|-------------------------------------------------------|
|-6--6--6-6-6-4--4-4-4-4-4-4-7--7--7-7-7-7--7-7-7-7-7-7-|
|-4--4--4-4-4-2--2-2-2-2-2-2-5--5--5-5-5-5--5-5-5-5-5-5-|

Chorus
|-------------------------------------------------------|
|-------------------------------------------------------|
|-------------------------------------------------------|
|-------------------------------------------------------|
|-6--6--6-6-6-4--4-4-4-4-4-4-7--7--7-7-7-4--4-4-4-4-4-4-|
|-4--4--4-4-4-2--2-2-2-2-2-2-5--5--5-5-5-2--2-2-2-2-2-2-|

==========Jerryís Dead==========

Intro
|---------------------------------------------------------------------------------------------|
|---------------------------------------------------------------------------------------------|
|-7-7-7-7-7-7-7-7-7-7-7-7-7-7-7-7-7-7-7-7-7-7-7-7-7-7-7-7-7-7-7-7-9--9-9-9--9-9-9--9-9-9--9-9-|
|-5-5-5-5-5-5-5-5-5-5-5-5-5-5-5-5-5-5-5-5-5-5-5-5-5-5-5-5-5-5-5-5-7--7-7-7--7-7-7--7-7-7--7-7-|
|---------------------------------------------------------------------------------------------|
|---------------------------------------------------------------------------------------------|

Verse
|-----------------------------------------------------------------|
|-----------------------------------------------------------------|
|-----------------------------------------------------------------|
|-----------------------------------------------------------------|
|-7-7-7-7-7-7-7-7-7-7-7-7-7-7-7-7-9-9-9-9-9-9-9-9-6-6-6-6-6-6-6-6-|
|-5-5-5-5-5-5-5-5-5-5-5-5-5-5-5-5-7-7-7-7-7-7-7-7-4-4-4-4-4-4-4-4-|

Chorus
|-----------------------------------------------------------------|
|-----------------------------------------------------------------|
|-----------------------------------------------------------------|
|-----------------------------------------------------------------|
|-6-6-6-6-6-6-6-6-6-6-6-6-6-6-6-6-6-6-6-6-6-6-6-6-6-6-6-6-6-6-6-6-|
|-4-4-4-4-4-4-4-4-4-4-4-4-4-4-4-4-4-4-4-4-4-4-4-4-4-4-4-4-4-4-4-4-|

==========Superfly==========

No Guitar

==========Threethirteen==========

No Guitar

==========Showoff===========

Verse
|-----------------------------------------------------------------|
|-----------------------------------------------------------------|
|-----------------------------------------------------------------|
|-9-9-9-9-9-9-9-9-9-9-9-9-9-9-9-9-9-9-9-9-9-9-9-9-9-9-9-9-9-9-9-9-|
|-7-7-7-7-7-7-7-7-7-7-7-7-7-7-7-7-7-7-7-7-7-7-7-7-7-7-7-7-7-7-7-7-|
|-----------------------------------------------------------------|

==========Nappyhead==========

Coming Soon
Related for Superstar tab