Song name
# A B C D E F G H I J K L M N O P Q R S T U V W X Y Z

Len - Cheekyurger tab

Song: Cheekyburger
Band: Len
Album: You Cant Stop the Bumrush
Tuning: Standard

Verse
|--------------------------|-
|--------------------------|-
|-7-7-5-5-5-3--3-3-3-3-3-3-|-
|-7-7-5-5-5-3--3-3-3-3-3-3-|-
|-5-5-3-3-3-1--1-1-1-1-1-1-|-
|--------------------------|-

Chorus
|---------------------------------|-
|---------------------------------|-
|---------------------------------|-
|-7-7-7-7-5-5-5-5-3-3-3-3-3-3-3-3-|-
|-7-7-7-7-5-5-5-5-3-3-3-3-3-3-3-3-|-
|-5-5-5-5-3-3-3-3-1-1-1-1-1-1-1-1-|-

After Chorus But Before Verse
|--------------------------|-
|--------------------------|-
|--------------------------|-
|-7-7-5-5-5-3--3-3-3-3-3-3-|-
|-7-7-5-5-5-3--3-3-3-3-3-3-|-
|-5-5-3-3-3-1--1-1-1-1-1-1-|-

Rhythm Behind Solo
|---------------------------------|-
|---------------------------------|-
|---------------------------------|-
|-7-7-7-7-7-7-7-7-4-4-4-4-4-4-4-4-|-
|-7-7-7-7-7-7-7-7-4-4-4-4-4-4-4-4-|-
|-5-5-5-5-5-5-5-5-2-2-2-2-2-2-2-2-|-

Solo
|-------------------------------------------|-
|-7-7-6-6-6-8-8----7-7-6-6-6-8--8-8-8-8-8-8-|-
|-------------------------------------------|-
|-------------------------------------------|-
|-------------------------------------------|-
|-------------------------------------------|-

Order of Play
Verse X4
Chorus X4
After Chorus X4
Verse X4
Chorus X4
Solo/Rhythm Behind Solo X4
Tap to rate this tab
# A B C D E F G H I J K L M N O P Q R S T U V W X Y Z