Song name
# A B C D E F G H I J K L M N O P Q R S T U V W X Y Z

Lene Marlin - Do You Remember tab

-------------------------------------------------------------------------------
                             Do You Remember - Lene Marlin
-------------------------------------------------------------------------------
Tabbed by: Stefan Lyck
Email:stefan_lyck£hotmail.com

Tuning:Standard

My First tab.
Please suscribe.







      G
e|----3----------------------------------------------------------------------|
B|---3-3------4x intro      -------------------------------------------------|
G|--0---0--------------------------------------------------------------------|
D|---------------------------------------------------------------------------|
A|---------------------------------------------------------------------------|
E|-3-------------------------------------------------------------------------|

Vers !
      G         G          C7        G
e|----3---------3----------3---------3---------------------------------------|
B|---3-3-------3-3--------3-3-------3-3--------------------------------------|
G|--0---0-----0---0------0---0-----0---0-------------------------------------|
D|---------------------------------------------------------------------------|
A|---------------------3-----------------------------------------------------|
E|-3---------3--------------------3------------------------------------------|
    E7    G     C7     G        C7       D7    Repeat this section once
e|------------------------------3--------3-----------------------------------|
B|---3-----3-----3-----3-------3-3------3-3----------------------------------|
G|--0-----0-----0-----0-------0---0----2---2------<-2x    -------------------|
D|------------------------------------0--------------------------------------|
A|-2-----------3-------------3-----------------------------------------------|
E|-------3-----------3-------------------------------------------------------|
     E7   G   C7    G   C7  D7    G         Repeat Vers 1 agian
e|---------------------------------3-----------------------------------------|
B|---3----3----3----3----3---3----3-3----------------------------------------|
G|--0----0----0----0----0---2----0---0---------------------------------------|
D|-------------------------0-------------------------------------------------|
A|-2--------3---------3------------------------------------------------------|
E|-----3---------3--------------3--------------------------------------------|
Vers 2     Bm          C7          E7        F#7    E7       C7     C7
e|----------2-----------3-----------3-------------------------3------3-------|
B|--------3--3---------3-3---------3-3---------3------3------3-3----3-3------|
G|------4-----4-------0---0-------0---0-------0------0------0---0--0---0-----|
D|----4----------------------------------------------------------------------|
A|------------------3------------2-----------------2-------3------3----------|
E|------------------------------------------2--------------------------------|
     D7      D7
e|----3-------3--------------------------------------------------------------|
B|---3-3-----3-3-------------------------------------------------------------|
G|--2---2---2---2---  Vers 2 end  -------------------------------------------|
D|-0-------0-----------------------------------------------------------------|
A|---------------------------------------------------------------------------|
E|---------------------------------------------------------------------------|
Bridge E7  D7       C7       C7
e|-------------------3--------3----------------------------------------------|
B|-----3-----3------3-3------3-3---------------------------------------------|
G|---0------2------0---0----0---0--------------------------------------------|
D|--------0------------------------------------------------------------------|
A|-2--------------3--------3-------------------------------------------------|
E|---------------------------------------------------------------------------|

e|---------------------------------------------------------------------------|
B|---------------------------------------------------------------------------|
G|----------Vers 1 again then  Vers 2 twice ---------------------------------|
D|---------------------------------------------------------------------------|
A|---------------------------------------------------------------------------|
E|---------------------------------------------------------------------------|
Tap to rate this tab
 
# A B C D E F G H I J K L M N O P Q R S T U V W X Y Z