Song name
# A B C D E F G H I J K L M N O P Q R S T U V W X Y Z

Lene Marlin - Playing My Game tab

Worked this out myself so it could be wrong, but hey, I tried:


"Won't open my mouth, you know what I'll say ....."

e------------------------------------------|
B-----0-3---0-3---------3-----3---3--------|
G---------------------2-----2--------------|    Repeat until ....
D------------------------------------------|
A---2-----2-----2-0------------------------|
E-------------------3-----3-----3----------|


(I can no longer..) "Hide, God knows I've tried"

e-------0-----0----0------------------------------------------------|
B------------------------3------3----3-----3-----3-----3-----3----3-|
G----------------------2------2----------2-----2-----2-----2--------|
D----0------0--------0------0-----0---------------------------------|
A--0------0-----0---------------------------------------------------|
E--------------------------------------3-----3-----3-----3------3---|


The 2 patterns just repeat through the verses and chorus and the
"Don't hold me with your eyes" bit with a bit of common sense.
If it doesn't work, let me know : girl64@hotmail.com .

Sarah
Tap to rate this tab
# A B C D E F G H I J K L M N O P Q R S T U V W X Y Z