Leningrad Cowboys - Little Green Men tab

Leningrad Cowboys - Little Green Man

Album: Go Space
Instrument: Guitar
Tuning: eBGDAE

Tabbed By: Rolf Oslo


Intro

e||--------------------------------|
B||--------------------------------|
G||------5-----5-----5-4-3---------|
D||----5-----5-----5-------5-4-3---|
A||-3------3-----3---------------6-|
E||--------------------------------| x4


Verse

e||--------------------------------|---------------------------------------------------|
B||--------------------------------|---------------------------------------------------|
G||--------------------------------|-----------------9--101010-9-101010-9-101010-9-1010|
D||----5-4-4-3-3-2-----5-4-4-3-3-2-|----3-2-2-1-1-2--9--101010-9-101010-9-101010-9-1010|
A||-3--3-3-3-3-3-3--3--3-3-3-3-3-3-|-1--1-1-1-1-1-1--7--8-8-8--7-8-8-8--7-8-8-8--7-8-8-|
E||--------------------------------|---------------------------------------------------| x2


Pre-Chorus

e||---------------|
B||---------------|
G||-------------6-|
D||-6---5---3---6-|
A||-6---6---3---4-|
E||-4---3---1-----| x2


Chorus

e||-------|
B||-------|
G||-5-----|
D||-5--4--|
A||-3--4--|
E||----2--| x4 
       pm



e||--------------------------------|
B||--------------------------------|
G||------5-----5-----5-4-3---------|
D||----5-----5-----5-------5-4-3---|
A||-3------3-----3---------------6-|
E||--------------------------------| x 4

Verse

e||--------------------------------|---------------------------------------------------|
B||--------------------------------|---------------------------------------------------|
G||--------------------------------|-----------------9--101010-9-101010-9-101010-9-1010|
D||----5-4-4-3-3-2-----5-4-4-3-3-2-|----3-2-2-1-1-2--9--101010-9-101010-9-101010-9-1010|
A||-3--3-3-3-3-3-3--3--3-3-3-3-3-3-|-1--1-1-1-1-1-1--7--8-8-8--7-8-8-8--7-8-8-8--7-8-8-|
E||--------------------------------|---------------------------------------------------| x2


Pre-Chorus

e||---------------|
B||---------------|
G||-------------6-|
D||-6---5---3---6-|
A||-6---6---3---4-|
E||-4---3---1-----| x2


Chorus

e||-------|
B||-------|
G||-5-----|
D||-5--4--|
A||-3--4--|
E||----2--| x4 
       pm

Break (haven't figured it out yet)


e||--------------------------------|
B||--------------------------------|
G||------5-----5-----5-4-3---------|
D||----5-----5-----5-------5-4-3---|
A||-3------3-----3---------------6-|
E||--------------------------------| x 4


Pre-Chorus

e||---------------|
B||---------------|
G||-------------6-|
D||-6---5---3---6-|
A||-6---6---3---4-|
E||-4---3---1-----| x2


Chorus

e||-------|
B||-------|
G||-5-----|
D||-5--4--|
A||-3--4--|
E||----2--| x8
       pm

Tap to rate this tab
 
# A B C D E F G H I J K L M N O P Q R S T U V W X Y Z