Song name
# A B C D E F G H I J K L M N O P Q R S T U V W X Y Z

Lenka - The Show tab

this is my first tab and so i dont no how good it will be! 

----------------------------------------------------------------------------
			     The Show - Lenka
----------------------------------------------------------------------------Tabbed by: *Ray SP8*

Tuning: standard

e|-2-2-0-2-0-2-2-2-0-2-5-0-0-0-0-0-2-3-2-2-2-0-2-2-2-0-2-3-2-2-3-2-0-0-|
b---------------------------3-3---------------3-------------3-------3-3|
G|---------------------------------------------------------------------|
D|---------------------------------------------------------------------|
A|---------------------------------------------------------------------|
E|---------------------------------------------------------------------|


E|-2-3-0-0-2---------3-2-3-5-2-0-2-3-0-0-2--------3-2-3-5-2------------|
B|-----------3-3-3-3----------------------3-3-3-3----------------------|
G|---------------------------------------------------------------------|
D|---------------------------------------------------------------------|
A|---------------------------------------------------------------------|
E|---------------------------------------------------------------------|

Hope it sound right! :)

Tap to rate this tab
 
# A B C D E F G H I J K L M N O P Q R S T U V W X Y Z