Song name
# A B C D E F G H I J K L M N O P Q R S T U V W X Y Z

Lennon And Maisy - Love chords

Highlighted       Show chord diagrams
-------------------------------------------------------------------------------
                             LOVE - Lennon and Maisy
-------------------------------------------------------------------------------
Tabbed by: My Sister (Me: Labmusix4life)
E-mail: simeawerder@ewanet.ch

Tuning: Standard

NO CAPO

Intro:

e|-----------------1-------------|--------------1------------|
B|------------3-------------3----|---------4-------------4---|
G|--------------3-----3--0----3--|------0----3----3--0-----3-|
D|------0------------------------|--1------------------------|
A|--------1----------------------|---------------------------|
E|---3---------------------------|---------------------------|

e|--------------------1------------|-------------------3/5---|
B|-------------3-------------3-----|----------1--------------|
G|-------3--------3------3------3--|-------------------------|
D|----------3---------------3------|------3-------3----------|
A|---1-----------------------------|-------------------------|
E|---------------------------------|--1----------------------|

Gm7  Eb9  Bb  F

            Gm7         Eb9  
Oh tumbling leave you fly so high,
        Bb            F
lets go chasing butterflies
          Gm7                       
We follow clouds (we follow clouds) 
          Eb9
up in the air (up in the air)
         Bb                F
Painting pictures of fairy tales

          Eb9
Oh summer sun
Hold me in your arms

Gm7        Eb9
I love you mother nature
Bb         F
Your sunny fields of green
Gm7         Eb9
I love your taste of freedom 
Bb           F
Your singing in the wind
Gm7             Eb9
I love (I love) breathing deeply
Bb              F
Just smell your summer rain
Gm7             Eb9
I love (I love) when you kiss me 
Bb                 F               Gm7 Eb9 Bb F
With your sunlight on my face 

Gm7            Eb9   Bb   F
I love (I love)

         Gm7          Eb9
I lay my head under the tree
         Bb                   F 
How many seasons he might have seen
           Gm7                
The golden fields (The golden fields)
            Eb9
they softly bow (they softly bow)
            Bb           F
And seem to whisper a lullaby

          Eb9
Oh summer sun
Hold me in your arms


Gm7        Eb9
I love you mother nature
Bb         F
Your sunny fields of green
Gm7         Eb9
I love your taste of freedom 
Bb           F
Your singing in the wind
Gm7             Eb9
I love (I love) breathing deeply
Bb              F
Just smell your summer rain
Gm7             Eb9
I love (I love) when you kiss me 
Bb                 F     Eb9
With your sunlight on my face

Like a warm embrace

       Gm F   Eb
Oh you little bird
         Gm    F    Eb
Tell the whole wide world
       Gm   F  Eb   [ch]F/Eb[/ch] Eb
That i save my love for her

Gm7        Eb9
I love you mother nature
Bb         F
Your sunny fields of green
Gm7         Eb9
I love your taste of freedom 
Bb           F
Your singing in the wind
Gm7             Eb9
I love (I love) breathing deeply
Bb              F
Just smell your summer rain
Gm7             Eb9
I love (I love) when you kiss me 
Bb                 F
With your sunlight on my face

Gm7            Eb9   Bb   F
I love (I love)




************************************

| /   slide up
| \   slide down
| h   hammer-on
| p   pull-off
| ~   vibrato
| +   harmonic
| x   Mute note
| b   Bend
| pb  Pre-bend
| br  Bend release
| pbr Pre-bend release
| brb Bend release bend

************************************
Tap to rate this tab
 
# A B C D E F G H I J K L M N O P Q R S T U V W X Y Z