Song name
# A B C D E F G H I J K L M N O P Q R S T U V W X Y Z

Lennon John - Instant Karma tab

Help us improve GuitareTab! Take a short survey!
Instant karma

As Recorded by: Beat Crusaders
Originally by: John Lennon
Album: Musicrusaders
Tunning: Standart

Pongo esta cancin que me parece de los mejores covers que he escuchado, un buen tributo 
John Lennon, el problema es que solo tengo esto espero les sirva.

INTRO

|  Guitarra ritmica         PM PM PM PM PM PM PM PM
|  E||-------------------|--------------------------|
|  B||-------------------|--------------------------|
|  G||-------------------|--------------------------|
|  D||-------------------|--------------7--7--7--7--|
|  A||-------------------|--5--5--5--5--5--5--5--5--|
|  E||-------------------|--3--3--3--3--------------|
|
|  Guitarra Principal
|  E||-------------------|--------------------------|
|  B||-------------------|--------------------------|
|  G||-------------------|--------------------------|
|  D||-------------------|-----------------------7--|
|  A||-------------------|-----------------------5--|
|  E||-------------------|--------------------------|
|

PM PM PM PM PM  PM PM  PM
------------------------------|------------------------------|
------------------------------|------------------------------|
------------------------------|------------------------------|
--9--9--9--9------------------|------------------------------|
--7--7--7--7--10--10--10--10--|--12--12--14----12----12--12--|
---------------8---8---8---8--|--10--10--12----10----10--10--|

------------------------------|------------------------------|
------------------------------|------------------------------|
------------------------------|------------------------------|
------------------------------|------------------------------|
------------------------------|--12--12--14----12----12--12--|
------------------------------|--10--10--10----10----10--10--|

------------------------------|
------------------------------|
------------------------------|
----------11------------------|
--14--14---9----14------------|
--12--12--------12------------|

------------------------------|
------------------------------|
------------------------------|
----------11------------------|
--14--14---9----14------------|
--12--12--------12------------|

SOLO INTRO w/ Gtr I
     (b=2)
-----------------------------|------------------------------|
-----------------------------|--------------14----17---(17)-|
--14--14b--------14--14------|--14--16--14------------------|
-------------------------16--|------------------------------|
-----------------------------|------------------------------|
-----------------------------|------------------------------|

-------------------------------|--------------------|
--/12----14--12----------------|--------------------|
-----------------14----16--14--|--12----------------|
-------------------------------|--------------------|
-------------------------------|--------------------|
-------------------------------|--------------------|
 (b=2)
---------------------------|------------------------------|
---------------------------|--------------14----17---(17)-|
--14b--------14--14--------|--14--16--14------------------|
---------------------16----|------------------------------|
---------------------------|------------------------------|
---------------------------|------------------------------|

-------------------------------|--------------------|-------------------|
--/12----14--12----------------|--------------------|-------------------|
-----------------14----16--14--|--14----------------|-------------------|
-------------------------------|--------------------|-------------------|
-------------------------------|--------------------|-------------------|
-------------------------------|--------------------|-------------------|

Gtr. I

||A5   F#5   B5(II)-D5  C5|| x2


VERSE

A5     F#5
A5     F#5
A5     F#5
F5 G5  A5

PRE-CHORUS

D5    B5
D5    B5
C5    A5
D5    E5(II)

CHORUS

G5   B5   E5
G5   B5   E5
G5   B5   E5
D5   E5(II)

**repeat**
------------
OK es lo que tengo, en la parte del solo puede que no suene tan bien, pero es lo que 
jajaja... dudas comentarios: saurosama@gmail.com
Related for Instant Karma tab