Song name
# A B C D E F G H I J K L M N O P Q R S T U V W X Y Z

Lennon John - Working Class Hero tab

Help us improve GuitareTab! Take a short survey!
Band: Green day
Song: Working class hero
Tuning: Standard
Tab By Ayeniel (amontecchia@hotmail.com)

Solo:
|-----------------------------------------------|
|-----------------------------------------------|
|-----6-7---9/11-9-7--------6-7---9/11-9-7-9/11-|
|--/9----------------9----9---------------------|
|-----------------------------------------------|
|-----------------------------------------------|

|--------------------------------------|
|12-10---------------------------------|
|------11--11-9-7----7--7-6--6---------|
|-----------------9------------9-7-9~~~|
|--------------------------------------|
|--------------------------------------|

Related for Working Class Hero tab