Song name
# A B C D E F G H I J K L M N O P Q R S T U V W X Y Z

Lennon - My Beautiful tab

Band:Lennon
Song:My Beautiful
Tuning:Standard

#----------------------------------PLEASE NOTE---------------------------------#
#This file is the author's own work and represents their interpretation of the #
#song. You may only use this file for private study, scholarship, or research. #
#------------------------------------------------------------------------------#

Intro
Wake up every morning to the sound of the radio screaming...
e|------------------------------------------------------------------| 
B|-0-0-0-0-0-0-0-0-0-0-0-0-0-0-0-0--0-0-0-0-0-0-0-0-0-0-0-0-0-0-0-0-|
G|-4-4-4-4-4-4-4-4-4-4-4-4-4-4-4-4--0-0-0-0-0-0-0-0-0-0-0-0-0-0-0-0-|
D|-4-4-4-4-4-4-4-4-4-4-4-4-4-4-4-4--0-0-0-0-0-0-0-0-0-0-0-0-0-0-0-0-| 
A|-2-2-2-2-2-2-2-2-2-2-2-2-2-2-2-2--2-2-2-2-2-2-2-2-2-2-2-2-2-2-2-2-|
E|-2-2-2-2-2-2-2-2-2-2-2-2-2-2-2-2--3-3-3-3-3-3-3-3-3-3-3-3-3-3-3-3-| 

Chorus
Where do I fit in, where is my place here...
e|------------------------------------------------------------------| 
B|-0-0-0-0-0-0-0-0--0-0-0-0-0-0-0-0--0-0-0-0-0-0-0-0----------------|
G|-0-0-0-0-0-0-0-0--2-2-2-2-2-2-2-2--4-4-4-4-4-4-4-4----------------|
D|-0-0-0-0-0-0-0-0--2-2-2-2-2-2-2-2--4-4-4-4-4-4-4-4----------------|
A|-2-2-2-2-2-2-2-2--0-0-0-0-0-0-0-0--2-2-2-2-2-2-2-2----------------|
E|-3-3-3-3-3-3-3-3-------------------2-2-2-2-2-2-2-2----------------| 

Verse
Late night, long day, doesn't make much difference to me anyway...
e|------------------------------------------------------------------| 
B|-0-0---0-0-0---0-0-0---0-0-0--0-0-x-x-x-0-0-x-x-x-0-0-x-x-x-0-0---|
G|-4-4---4-4-4---4-4-4---4-4-4--0-0-x-x-x-0-0-x-x-x-0-0-x-x-x-0-0---|
D|-4-4---4-4-4---4-4-4---4-4-4--0-0-x-x-x-0-0-x-x-x-0-0-x-x-x-0-0---| 
A|-2-2-0-2-2-2-0-2-2-2-0-2-2-2--2-2-x-x-x-2-2-x-x-x-2-2-x-x-x-2-2---|
E|-2-2-0-2-2-2-0-2-2-2-0-2-2-2--3-3-x-x-x-3-3-x-x-x-3-3-x-x-x-3-3---| 

Chorus
Where do I fit in, where is my place here...
e|------------------------------------------------------------------| 
B|-0-0-0-0-0-0-0-0--0-0-0-0-0-0-0-0--0-0-0-0-0-0-0-0----------------|
G|-0-0-0-0-0-0-0-0--2-2-2-2-2-2-2-2--4-4-4-4-4-4-4-4----------------|
D|-0-0-0-0-0-0-0-0--2-2-2-2-2-2-2-2--4-4-4-4-4-4-4-4----------------|
A|-2-2-2-2-2-2-2-2--0-0-0-0-0-0-0-0--2-2-2-2-2-2-2-2----------------|
E|-3-3-3-3-3-3-3-3-------------------2-2-2-2-2-2-2-2----------------| 

www.lennononline.com
Tap to rate this tab
# A B C D E F G H I J K L M N O P Q R S T U V W X Y Z