Song name
# A B C D E F G H I J K L M N O P Q R S T U V W X Y Z

Lennox Berkeley - Op 52 No 1 tab

Sonatina - Lennox Berkeley (1903-1989)
 
 
E|----------------|--2--5-4-2------|--5------4------|--2--5-4-2-------|
B|----------2-3-5-|--3--------3----|----7------5----|--3--------5-3-2-|
G|----1-2-4-------|--2----------4--|------4------2--|--2--------------|
D|-4--------------|--2-------------|--0-------------|--2--------------|
A|-2--------------|----------------|---------0------|-----------------|
E|-0--------------|----------------|----------------|-----------------|

 
E|----------------|-------------0--|--------------------------------0-|
B|-3--------------|---------2-3----|--3---------------------2---3-----|
G|---4------------|--1-2-4--1---2--|----4-----------1-2-4---1-------2-|
D|-----4^0---0-4--|---------2---4--|------4^0---0-4---------2-------4-|
A|---------0------|----------------|----------0-----------------------|
E|----------------|----------------|----------------------------------|
 
                  a
      a i m i p i m
E|-2--2--------------------|-2-5-4-|---2---2--------------------------|
B|------0---------2--2-3-5-|-2---2-|---------0---------2---2--3--5----|
G|--------0-------2--------|-2---2-|-----------0-------2--------------|
D|----------0---0----------|-------|-------------0---0----------------|
A|------------2------------|-------|---------------2------------------|
E|-3-----------------------|-------|---3------------------------------|
 
 
E|----2--5--4----5^4--2----|----0 -0----------------------------------| 
B|----0-----2---------0----|---------------------------------0 -3 -1--|
G|----0--------------------|----------2----------------0--2-----------| 
D|-------------------------|-------------3----0 -2--3--------0--------| 
A|-------------------------|---------------3--------------------------| 
E|--------------------3----|----1----------------------------3--------|

 
E|-0-0-------------------------|--0--------------|--------------------|
B|---------------------0-3-1---|--2------2-------|--------------------|
G|-----2-----------0-2-0---2---|---------2-------|---2----------------|
D|-------3---0-2-3-----2---3---|----0-0-----0-0--|---2^0-0------------|
A|---------3-------------------|-----------------|-----------1^4-2----|
E|-1---------------------------|-----------------|--------------------|

 
E|--------------------|-----------------------|-----------------------|
B|--------------------|-----------------------|-----------------------|
G|--------------------|-----------------------|-----------------------|
D|---7----------------|-----------------------|-----------------------|
A|---7^5-5---1^4-2----|------------1^4-2------|-----------------------|
E|--------------------|----6^9-7--------------|----3^6-5---3^2-1------|

 
E|--------------------|--------------------0--|-----------------------|
B|------------2--3--5-|----------------2-3-3--|---------------2----2--|
G|----1-2-4-----------|-------1--2--4------2--|----1-2-4--2-4---4-----|
D|--4-----------------|---4----------------2--|--4--------------------|
A|--2-----------------|---2----------------2--|-----------------------|
E|--0-----------------|---0----------------0--|-----------------------|
 

E|------------0-------|--------------------4--|-5---------5---3---2---|
B|---3--5--7-----7--9-|--------------5--7-----|---0---------0---0---0-|
G|------2--4-----4--6-|---4----6--7-----------|-----0-----------------|
D|------4--6-----6--7-|---4-------------------|-------0---------------|
A|--------------------|---5-------------------|---------0-------------|
E|--------------------|---0-------------------|-----------------------|
 

E|---5---------5---3---2-----------------|----------------------------|
B|-----0---------0---0---0-5---3---2-----|---5-----------5---4---2----|
G|-------0-------------------0---0---0---|-----2^0---------0---0---0--|
D|---------0-----------------------------|---------0------------------|
A|-----------0---------------------------|-----------0----------------|
E|---------------------------------------|----------------------------|
 

E|---------------------------|----------------------------------------|
B|--5-----------5---4---2----|-----0----2----4-----2----4----5--------|
G|----2^0---------0---0---0--|-------0----2----4-----2----4----5------|
D|--------0------------------|-----0----2----4-----2----4----5--------|
A|----------0----------------|----------------------------------------|
E|---------------------------|----------------------------------------|
 

E|--------------3---2--------|----------------------5---3---2---------|
B|--4-------------------5----|------4-----------------0---0---0-------|
G|----2-----------2---2---2--|---------2------------------------------|
D|------2--------------------|-----------2----------------------------|
A|--------2------------------|-------------2--------------------------|
E|----------2----------------|---------------2------------------------|
 

E|--0----------------|--------------|---------------|-----0-2-0-2-3---|
B|----1--------------|--------------|-----0-1-3--1--|--3--0-1-0-1-3---|
G|------0------------|---------2-0--|--2----0-2--0--|--2--0-2-0-2-4---|
D|--------2----------|----2-4--2-0--|--2----2-4--2--|--4--0-2-0-2-4---|
A|------------0-3-2--|--3-2-4--3-2--|--3----2-3--2--|--3--------------|
E|----------3--------|----3-5-------|---------------|-----------------|
 

E|--5-----------7--|--5-----------7--|--5---------7---5---------7-----|
B|--5---5-----7----|--6---6-----7----|----6-----7-------6-----7-------|
G|--5-----5-7------|--5-----5-8------|------5^8-----------5^8---------|
D|--5--------------|--3--------------|--------------------------------|
A|--3--------------|--3--------------|--------------------------------|
E|--3--------------|--3--------------|--------------------------------|
 

E|----4---------6-----4---------6----|--3---------5----3---------5----|
B|------5-----6---------5-----6------|----4-----5--------4-----5------|
G|--------4^7-------------4^7--------|------3^6------------3^6--------|
D|-----------------------------------|--------------------------------|
A|-----------------------------------|--------------------------------|
E|-----------------------------------|--------------------------------|
 

E|--3---0-------------9^11-------12--|---17---|------17---------------|
B|----4----10^11-8-10------13^14-----|--------|-----------------------|
G|-----------------------------------|--------|--------------2--------|
D|-----------------------------------|--------|-----------------------|
A|-----------------------------------|--------|-----------------------|
E|-----------------------------------|--------|-----------------------|
 
 
E|------------------------------|-------------------------------------|
B|-----3------------------------|-----3-------------------------------|
G|-----2------------------------|-----2-------------------------------|
D|-----2--5--5-5-5--7-8-10------|-----2--5--5-5-5--7-8-10---5-7-8-----|
A|-----1------------------------|-----1-------------------------------|
E|--------3--3---3--5-6--8------|--------3--3---3--5-6--8---3-5-6-----|
 

E|------------------------|----------------|--------------------------|
B|--1---------------------|--1----1----1---|-------------------1-3^4--|
G|--0---------------------|--0----0----0---|-------------0-1-3--------|
D|--0---3--3-3-3---5-6-8--|--0----0----0---|---------2-3--------------|
A|--3---------------------|----------------|---2-3-5------------------|
E|--4---1--1---1---3-4-6--|----4----1----3-|-4------------------------|
 

E|----1-------------0---1---3-------|----1------------0---1---3-------|
B|------1-------------2---2---2-----|------1------------2---2---2-----|
G|--------0-------------------------|--------0------------------------|
D|----------0-----------------------|----------0----------------------|
A|----------------------------------|---------------------------------|
E|------------4---------------------|------------4--------------------|
 

E|---6^3-4---3---1---0--------|------------------0--------------------|
B|---------6---5---3---2-3^0--|--2-----------2-------4---2---1--------|
G|----------------------------|-----0----------1---1---1---0---0-3----|
D|----------------------------|-------3-------------------------------|
A|----------------------------|---------2-----------------------------|
E|----------------------------|-----------0---------------------------|
 
                                       i m a m   i p i m a m i p   p p
E|--------------|-------------7--7-|-7-----5--------------------------|
B|--------------|-------------9--9-|-8---6---8^5-------5-4------------|
G|----2---------|------------------|---7---------5---6-----4----------|
D|-2----5-4-2---|------------------|---------------7---------6--------|
A|-3----------5-|---4-2---1--------|---------------------------7^6----|
E|-2------------|-4-----2---4------|-------------------------------7-4|
 
                          i m i a   i p i m i  a m i  a m i p i  p
E|--7--7--5--5-----0--|---------0--------------5------3---------------|
B|--9--8-----5--------|-----0-------------0------6------4-------------|
G|--------7------5----|---7---0-----5---7---0------7------5---0-------|
D|-------------7------|---------------7---------------------6---------|
A|--------------------|------------------------------------------6^3--|
E|--------------------|-----------------------------------------------|
 

E|--8---8---0---0-|---5-------3-------0---5-------3-------(0)------0--|
B|--9--10---------|-----6-------4-----2-----6-------4---------(5)-----|
G|----------9---9-|-------7-------5-----------7-------5------------6--|
D|---------10--11-|---------------------------------------------------|
A|----------------|-------------------0----------------------------0--|
E|----------------|---------------------------------------------------|
 

E|------------------------|-------------0--------|--------1------2----|
B|---10---6---8---4---1---|---4------------------|--------0------1----|
G|------------------------|---2---------3--------|--------1------2----|
D|------------------------|---4---------5--------|--------------------|
A|---12---8--10---6---3---|------2--2------2--2--|--2--2--2--2------2-|
E|------------------------|----------------------|--------------------|
 
                             p i m a m i p i m
E|-3------4------|--5-----6--------6-----------|-7--------------------|
B|-2------3------|--4-----5------5---5-------5-|-6--------------------|
G|-3------4------|--5-----6----6-------6---6---|-7--------------------|
D|----0-0----0-0-|-----0-----0-----------0-----|--------------2-------|
A|---------------|-----------------------------|--------2-3-5---5-3-2-|
E|---------------|-----------------------------|----3-5---------------|
 
 
E|-------7-7-7--7--------------------|--------1------------1----------|
B|-------6-6-6--6--------------------|--------0---------0--0----------|
G|-------7-7-7--7--------------2-----|-----4--2---0-2------2---0-2----|
D|-----------------------2-3-5-------|--------0^3----------0^3--------|
A|----0--------------0^5-------------|--------------------------------|
E|-----------------------------------|--------------------------------|
 
.
E|---------------5^7-8-10-12-10--|--13^12-10----------10^8-7----------|
B|--0^1-3-5-6-8------------------|-----------13-12-10---------10-8-6--|
G|-------------------------------|------------------------------------|
D|-------------------------------|------------------------------------|
A|-------------------------------|------------------------------------|
E|-------------------------------|------------------------------------|
 

E|----7^5------------------------|-------7-7-7---7----7-7-7--7--7-----|
B|---------8-6-5-----------------|-------6-6-6---6----6-6-6--6--6-----|
G|---------------7-5-4-2---------|-------9-9-9---9----9-9-9--9--9-----|
D|-----------------------5-3-2---|---0--------------------------------|
A|-------------------------------|------------------------------------|
E|-------------------------------|------------------------------------|
 
 
E|-----------------------------|--------------------------------------|
B|-----------------------------|--------------------------------------|
G|-----------------------------|--------------------------------------|
D|-------------------0-2-0-----|-----3^2-0----------------------------|
A|-----2-------0-2-3-----------|-------------3-2-0---5^3-2-0----------|
E|--------1-3------------------|------------------------------3-1-----|
 
 
E|----------------------------------|-----------------|--2--5-4-2-----|
B|----------------------------------|-----------2-3-5-|--3--------3---|
G|----------------------------------|-----1-2-4-------|--2----------4-|
D|----------------------------------|--4--------------|--2------------|
A|--2^0-----2^0-----2---0^2^0-------|--2--------------|---------------|
E|------3-1-----3-1------------3-1--|--0--------------|---------------|
 
 
E|--5------4------|--2--5-4-2-------|----------------|-------------0--|
B|----7------5----|--3--------5-3-2-|-3--------------|---------2-3----|
G|------4------2--|--2--------------|---4------------|--1-2-4--1---2--|
D|--0-------------|--2--------------|-----4^0---0-4--|---------2---4--|
A|---------0------|-----------------|---------0------|----------------|
E|----------------|-----------------|----------------|----------------|
 

E|--------------------------------0-|-2--2--------------------|-2-5-4-|
B|--3---------------------2---3-----|------0---------2--2-3-5-|-2---2-|
G|----4-----------1-2-4---1-------2-|--------0-------2--------|-2---2-|
D|------4^0---0-4---------2-------4-|----------0---0----------|-------|
A|----------0-----------------------|------------2------------|-------|
E|----------------------------------|-3-----------------------|-------|
 
 
E|---2---2-------------------------|----2--5--4---5-------2-----------|
B|---------0---------2---2--3--5---|----0-----2---7-------3-----------|
G|-----------0-------2-------------|----0------------0-0-----0-0------|
D|-------------0---0---------------|----------------------------------|
A|---------------2-----------------|----------------------------------|
E|---3-----------------------------|----------------------------------|
 
 
E|----------------|----------------|-0--------------|-0---------------|
B|--3-------------|--3-------------|-0--------------|-0-------------0-|
G|--2^0-0---------|--2^0-0---------|----------------|-0---------0-2---|
D|---------1^4-2--|---------1^4-2--|-9^7-7----------|-----0-2-4-------|
A|----------------|----------------|--------8^11--9-|---4-------------|
E|----------------|----------------|----------------|-3---------------|
 
 
E|---------2----2-3--2-3--|--5-7-9---7--9--11--|------------9---11----|
B|--2--3-5----5-----------|----------8---------|---10--12-------------|
G|--0---------------------|----------9---------|----------------------|
D|--0---------------------|----------7---------|----------------------|
A|--0---------------------|--------------------|----------------------|
E|--0---------------------|--------------------|----------------------|
 
 
E|-12---------12----10----9---|-12----------12---10---9---7---5---3---|
B|----0----------0-----0----0-|-----0----------0----0---0---0---0---0-|
G|------0---------------------|-------0-------------------------------|
D|--------0-------------------|---------0-----------------------------|
A|----------0-----------------|-----------0---------------------------|
E|----------------------------|---------------------------------------|
 
 
E|--7-----------7----5--------|---5--------------5------3-------------|
B|-----------------------8----|--------4-----------------------6------|
G|-----5----------5----5---5--|-----------3----------3------3-----3---|
D|-------5--------------------|-------------3-------------------------|
A|---------7------------------|---------------3-----------------------|
E|-----------5----------------|---------------------------------------|
 
 
E|---3------------------------|------------------|-----1--3--1--3--4--|
B|-------2--------------------|---1------1-2-4-2-|--4--1--3--1--3--5--|
G|---------1-------------0----|-3-0-0-3--0-1-3-1-|--3--1--4--1--4--5--|
D|-----------1--------2--0----|-3---0----1-3-0-3-|--0--1--3--1--3--4--|
A|-------------1---3----------|---0-1------3-4-3-|--4-----------------|
E|-----------------0-----1----|-3---1------------|--------------------|
 
 
E|---6----------8---|---6----------8---|---6---------8--6---------8---|
B|---6--6-----8-----|---7--7---5-8-----|-----7-----8------7-----8-----|
G|---6----6-8-------|---6----6---------|-------6^9----------6^9-------|
D|---6--------------|---4--------------|------------------------------|
A|---4--------------|---4--------------|------------------------------|
E|---4--------------|---4--------------|------------------------------|
 
                                    a  m  i  a  m  i a  m  i  m i p  
E|---5---------7--5---------7---|---4---------------------------------|
B|-----6-----7------6-----7-----|------5-----3------------------------|
G|-------5^8----------5^8-------|---------4-----3----0----------------|
D|------------------------------|------------------3----2-----0-------|
A|------------------------------|---------------0----------2----1-----|
E|------------------------------|---0----------------0------------1---|
 

E|--------------------------|--------------------------|--------0-2-4-|
B|----------------0---2--3--|----------------0---2--3--|-0-2-3--2-----|
G|--0---0--0--0---1---------|--0---0--0--0---1---------|-1--------2-1-|
D|----------------3---------|----------------3---------|---3-0--------|
A|----------------1---------|----------------1---------|--------------|
E|--3---3-----3-------------|--3---3-----3-------------|--------------|
 

E|---5---------4---------|--2--5-4-2---------2-4--|---5-------4-------|
B|------7---------5------|--2--------5^4-2-5------|-----7-------5-----|
G|---------4---------2---|--2---------------------|-------4-------2---|
D|---0---------0---------|--0---------------------|---0-------0-------|
A|-----------------------|------------------------|-------------------|
E|-----------------------|------------------------|-------------------|
 

E|-----------------------|-----------------------|--------------------|
B|--7--------0--2--3--5--|--7--------0--2--3--5--|--3--0--------------|
G|-----7-----4-----------|-----7-----4-----------|--2--4--------------|
D|--------5--------------|--------5--------------|--------4--3--6-5-3-|
A|-----------4-----------|-----------4-----------|--2--------5--------|
E|--0--------5-----------|--0--------5-----------|--0--------6--------|

 
E|-----------------------|---------4---3---1--|---0-------------------|
B|---3--0----------------|--------------------|-------3---1---0-------|
G|---2--4----------------|-------------0------|-------------------2---|
D|---------4--3--6-5-3---|--6-5-3--6-------3--|---2---0---------------|
A|---2--------5----------|--------------------|-----------3---2---0---|
E|---0--------6----------|--------------------|-----------------------|
 

E|------------------------------------|------------------------------||
B|-------0---------2---0--------2-----|-------0---------2----2-------||
G|-----------------2------------2-----|-----------------2----2-------||
D|------------------------------------|-----------------2----2-------||
A|-----------------0------------0-----|-----------------0----0-------||
E|-------3^1---0-------3^1---0--------|-------3^1---0----------------||


Tap to rate this tab
 
# A B C D E F G H I J K L M N O P Q R S T U V W X Y Z