Song name
# A B C D E F G H I J K L M N O P Q R S T U V W X Y Z

Lenny Kravitz - You Gonna Go My Way tab

You gonna go my way

Intro:

Guitar 1:

E:--------------------------|------------------------3-----|
B:--------------------------|------------------------3-----|
G:-----2-p4-p2-p0-----------|-----2-p4-p2-p0---------------| x8
D:----------------2---0-2---|----------------2---0-2-------|
A:------------------2-------|------------------2-----------|
E:--------------------------|------------------------------|

Guitar 2: (after the guitar one have played that 2 times)

(when you bend you have to bend one tone up!!)
E:------------------------------|
B:------------------------------|
G:-----14b/\p12-----------------| x8
D:--------------14----12-14-----|
A:-----------------14-----------|
E:------------------------------|


Have fun =:)

Tap to rate this tab
# A B C D E F G H I J K L M N O P Q R S T U V W X Y Z