Song name
# A B C D E F G H I J K L M N O P Q R S T U V W X Y Z

Lenny Kravitz - Ill Be Waiting Acoustic tab

Artist: Lenny Kravitz
Song: I'll Be Waiting
Album: It Is Time For A Love Revolution


This guitar was not tabbed out by me but by Xavier. So credit goes to him and his
awesome Youtube video( http://youtube.com/watch?v=GOscZ9rKxJ4). =)
 

INTRO:
   Dm7               D#                  Bb        Bb
e|-----------------------------------------------------------------|
B|---------6h8p6-------------------------------6---6---6-----------|
G|---------------5----------8h10-8----------7------7h8-7--------8\-|
D|-----7-----------7--------8h10-8---------------8-------8------8\-|
A|-5-----------------6-8s10--------10\---------------------8s10----|
E|--------------------------------------/6-------------------------|
|         |         |      |            |         |

   Dm7               D#                  Bb             F
e|------------------------------------------6---6-----------------------|
B|---------6h8p6----------------------------6h8-6---6---10----10-10-----|
G|---------------5----------8h10-8------------------7h8-10----10-10-----|
D|-----7-----------7--------8h10-8----------------------10----10-10-----|
A|-5-----------------6-8s10--------10\------------------8---8-----------|
E|--------------------------------------/6------------------------------|
|         |         |      |            |             |


VERSE:
   Dm7               D#                  Bb        Bb
e|-----------------------------------------------------------------|
B|---------6h8p6-------------------------------6---6---6-----------|
G|---------------5----------8h10-8----------7------7h8-7--------8\-|
D|-----7-----------7--------8h10-8---------------8-------8------8\-|
A|-5-----------------6-8s10--------10\---------------------8s10----|
E|--------------------------------------/6-------------------------|
|         |         |      |            |         |
                   He broke your heart          He took your soul

   Dm7               D#                  Bb             F
e|--------------------------------------------------------------------|
B|---------6h8p6-------------------------------6---6---6--------------|
G|---------------5----------8h10-8-------------7---7h8-7-----10-------|
D|-----7-----------7--------8h10-8----------8----8-----------12p10----|
A|-5-----------------6-8s10--------10\-------------------/12-------12-|
E|--------------------------------------/6----------------------------|
|         |         |      |            |         |
              You're hurt inside            'Cause there's a hole

   Dm7               D#                  Bb        Bb
e|-----------------------------------------6s8s6-------------------|
B|---------6h8p6---------------------------6s8s6----------6--------|
G|---------------5----------8h10-8--------------------7h8-7--------|
D|-----7-----------7--------8h10-8--------------------------8------|
A|-5-----------------6-8s10--------10\------------------------8----|
E|--------------------------------------/6-------------------------|
|         |         |      |            |         |
                 You need some time             to be alone

   Dm7               D#                  Bb             F
e|-------------------------------------------------------------------|
B|---------6h8p6-------------------------------6---------------------|
G|---------------5----------8h10-8-------------7------------10-------|
D|-----7-----------7--------8h10-8----------8---------------12p10----|
A|-5-----------------6-8s10--------10\--------------8-10s12-------12-|
E|--------------------------------------/6---------------------------|
|         |         |      |            |         |
                then you will find            what you've always known


CHORUS:
   D#maj7                          Gm7
e|-6-------6-------6-------6----------------------------------------------|
B|-8-------8-------8-------8-------------11h13p11-------------10-12-------|
G|-7-------7-------7-------7---------------------10-----------10-12p10----|
D|-8-------8-------8-------8----------12-----------12---10s12----------12-|
A|-6---6---6---6---6---6---6---6---10-----------------8-------------------|
E|------------------------------------------------------------------------|
|         |       |       |       |                  |
                                   I'm the one who really love ya, baby

   D#maj7                          F
e|-6-------6-------6-------6----------------------------------------------|
B|-8-------8-------8-------8-------10------10------10------------10-------|
G|-7-------7-------7-------7-------10------10------10------------10-------|
D|-8-------8-------8-------8-------10------10------10---------------------|
A|-6---6---6---6---6---6---6---6---8---8---8---8---8---8---10s12----------|
E|------------------------------------------------------------------------|
|         |       |       |       |                  |
                                   I've been knockin' at your door

   Dm7               D#                  Bb        Bb
e|-----------------------------------------------------------------|
B|---------6h8p6--------------8----------------6---6-6-6---6-6-6---|
G|-------5-------5----------8-8----------------7---7-8-7---7-8-7---|
D|-----7-----------7--------8---------------8----8-------8---------|
A|-5-----------------6-8s10--------10\-----------------------------|
E|--------------------------------------/6-------------------------|
|         |         |      |            |         |
    and as long as I'm livin'           I'll be waitin'

   Dm7               D#                  Bb        F
e|-----------------------------------------6---6-------------------|
B|---------6h8p6--------------8------------6h8-6-6-10--------------|
G|-------5-------5----------8-8------------------7-10-----------10-|
D|-----7-----------7--------8----------------------10-----------10-|
A|-5-----------------6-8s10--------10\-------------8----8-10s12----|
E|--------------------------------------/6-------------------------|
|         |         |      |            |         |
        as long as I'm breathin'           I'll be there

   Dm7               D#                  Bb        Bb
e|-----------------------------------------------------------------|
B|---------6h8p6--------------8----------------6---6-6-6---6-6-6---|
G|-------5-------5----------8-8----------------7---7-8-7---7-8-7---|
D|-----7-----------7--------8---------------8----8-------8---------|
A|-5-----------------6-8s10--------10\-----------------------------|
E|--------------------------------------/6-------------------------|
|         |         |      |            |         |
       whenever you call me                I'll be waitin'

   Dm7               D#                  Bb        F
e|-----------------------------------------------------------------|
B|---------6h8p6--------------8------------6---6-------------------|
G|-------5-------5----------8-8------------7h8-7------------10-----|
D|-----7-----------7--------8--------------8---8-------10----------|
A|-5-----------------6-8s10--------10\-------------8---------------|
E|--------------------------------------/6-------------------------|
|         |         |      |            |         |
       whenever you need me                   I'll be there


INSTRUMENTAL:
   Dm7               D#                  Bb        Bb
e|-----------------------------------------6s8s6-------6s8s6s8s6---|
B|---------6h8p6---------------------------6s8s6---6---6s8s6s8s6---|
G|---------------5----------8h10-8-----------------7h8-------------|
D|-----7-----------7--------8h10-8---------------------------------|
A|-5-----------------6-8s10--------10\-----------------------------|
E|--------------------------------------/6-------------------------|
Tap to rate this tab
 
# A B C D E F G H I J K L M N O P Q R S T U V W X Y Z