Song name
# A B C D E F G H I J K L M N O P Q R S T U V W X Y Z

Lenny Kravitz - Lady tab

HI! again this is real cool song enjoy playing it


intro:
e:3---3---3-3---3---3---3-3---3--|
B:3---3---3-3---3---3---3-3---3--|
G:4---4---4-4---4---4---4-4---4--|
D:5---5---5-5---5---5---5-5---5--| x2
A:5---5---5-5---5---5---5-5---5--|
E:3---3---3-3---3---3---3-3---3--|

verse:

e:3---3---3-3---3---3---3-3---3-|
B:3---3---3-3---3---3---3-3---3-|
G:4---4---4-4---4---4---4-4---4-|
D:5---5---5-5---5---5---5-5---5-|
A:5---5---5-5---5---5---5-5---5-|
E:3---3---3-3---3---3---3-3---3-|


e:3---3---3-3---3---3---3-3---3---2---2---2-2---2---2-|
B:3---3---3-3---3---3---3-3---3---2---2---2-2---2---2-|
G:4---4---4-4---4---4---4-4---4---3---3---3-2---2---2-|
D:5---5---5-5---5---5---5-5---5---4---4---4-4---4---4-|
A:5---5---5-5---5---5---5-5---5---4---4---4-4---4---4-|
E:3---3---3-3---3---3---3-3---3---2---2---2-2---2---2-|

e:---1-1---1-|
B:---1-1---1-|
G:---2-2---2-|
D:---3-3---3-|
A:---3-3---3-|
E:---1-1---3-|

e:3---3---3-3---3---3---3-3---3-|
B:3---3---3-3---3---3---3-3---3-|
G:4---4---4-4---4---4---4-4---4-|
D:5---5---5-5---5---5---5-5---5-|
A:5---5---5-5---5---5---5-5---5-|
E:3---3---3-3---3---3---3-3---3-|


e:3---3---3-3---3---3---3-3---3---2---2---2-2---2---2-|
B:3---3---3-3---3---3---3-3---3---2---2---2-2---2---2-|
G:4---4---4-4---4---4---4-4---4---3---3---3-2---2---2-|
D:5---5---5-5---5---5---5-5---5---4---4---4-4---4---4-|
A:5---5---5-5---5---5---5-5---5---4---4---4-4---4---4-|
E:3---3---3-3---3---3---3-3---3---2---2---2-2---2---2-|

e:---1-1---1-|
B:---1-1---1-|
G:---2-2---2-|
D:---3-3---3-|
A:---3-3---3-|
E:---1-1---3-|

e:3---3---3-3---3---3---3-3---3---4---4---4-4---4---4---4-4---4-|
B:3---3---3-3---3---3---3-3---3---4---4---4-4---4---4---4-4---4-|
G:4---4---4-4---4---4---4-4---4---5---5---5-5---5---5---5-5---5-|
D:5---5---5-5---5---5---5-5---5---6---6---6-6---6---6---6-6---6-|
A:5---5---5-5---5---5---5-5---5---6---6---6-6---6---6---6-6---6-|
E:3---3---3-3---3---3---3-3---3---4---4---4-4---4---4---4-4---4-|

e:5---5---5-5---5---5---5-5---5-|
B:5---5---5-5---5---5---5-5---5-|
G:6---6---6-6---6---6---6-6---6-|
D:7---7---7-7---7---7---7-7---7-|
A:7---7---7-7---7---7---7-7---7-|
E:5---5---5-5---5---5---5-5---7-|

e:3---3---3-3---3---3---3-3---3--|
B:3---3---3-3---3---3---3-3---3--|
G:4---4---4-4---4---4---4-4---4--|
D:5---5---5-5---5---5---5-5---5--| x2
A:5---5---5-5---5---5---5-5---5--|
E:3---3---3-3---3---3---3-3---3--|

e:3---3---3-3---3---3---3-3---3-|
B:3---3---3-3---3---3---3-3---3-|
G:4---4---4-4---4---4---4-4---4-|
D:5---5---5-5---5---5---5-5---5-|
A:5---5---5-5---5---5---5-5---5-|
E:3---3---3-3---3---3---3-3---3-|


e:3---3---3-3---3---3---3-3---3---2---2---2-2---2---2-|
B:3---3---3-3---3---3---3-3---3---2---2---2-2---2---2-|
G:4---4---4-4---4---4---4-4---4---3---3---3-2---2---2-|
D:5---5---5-5---5---5---5-5---5---4---4---4-4---4---4-|
A:5---5---5-5---5---5---5-5---5---4---4---4-4---4---4-|
E:3---3---3-3---3---3---3-3---3---2---2---2-2---2---2-|

e:---1-1---1-|
B:---1-1---1-|
G:---2-2---2-|
D:---3-3---3-|
A:---3-3---3-|
E:---1-1---3-|

e:3---3---3-3---3---3---3-3---3-|
B:3---3---3-3---3---3---3-3---3-|
G:4---4---4-4---4---4---4-4---4-|
D:5---5---5-5---5---5---5-5---5-|
A:5---5---5-5---5---5---5-5---5-|
E:3---3---3-3---3---3---3-3---3-|


e:3---3---3-3---3---3---3-3---3---2---2---2-2---2---2-|
B:3---3---3-3---3---3---3-3---3---2---2---2-2---2---2-|
G:4---4---4-4---4---4---4-4---4---3---3---3-2---2---2-|
D:5---5---5-5---5---5---5-5---5---4---4---4-4---4---4-|
A:5---5---5-5---5---5---5-5---5---4---4---4-4---4---4-|
E:3---3---3-3---3---3---3-3---3---2---2---2-2---2---2-|

e:---1-1---1-|
B:---1-1---1-|
G:---2-2---2-|
D:---3-3---3-|
A:---3-3---3-|
E:---1-1---3-|

e:3---3---3-3---3---3---3-3---3---4---4---4-4---4---4---4-4---4-|
B:3---3---3-3---3---3---3-3---3---4---4---4-4---4---4---4-4---4-|
G:4---4---4-4---4---4---4-4---4---5---5---5-5---5---5---5-5---5-|
D:5---5---5-5---5---5---5-5---5---6---6---6-6---6---6---6-6---6-|
A:5---5---5-5---5---5---5-5---5---6---6---6-6---6---6---6-6---6-|
E:3---3---3-3---3---3---3-3---3---4---4---4-4---4---4---4-4---4-|

e:5---5---5-5---5---5---5-5---5-|
B:5---5---5-5---5---5---5-5---5-|
G:6---6---6-6---6---6---6-6---6-|
D:7---7---7-7---7---7---7-7---7-|
A:7---7---7-7---7---7---7-7---7-|
E:5---5---5-5---5---5---5-5---7-|

e:33333333333333444444444444443333333333333344444444444444455555555555
B:33333333333333444444444444443333333333333344444444444444455555555555
G:44444444444444555555555555554444444444444455555555555555566666666666
D:55555555555555666666666666665555555555555566666666666666677777777777
A:55555555555555666666666666665555555555555566666666666666677777777777
E:33333333333333444444444444443333333333333444444444444444455555555555

SOLO:
e:------------------------------------------------------------------------12-|
B:-12-10-----------------------------------------------12-10-----------------|
G:------12-9-----------------------------12-12H10-10H12-----12-10-12-10-12---|
D:----------12-9--------------------10-12------------------------------------|
A:--------------12-10----------10-12-----------------------------------------|
E:-------------------12-9-10-12----------------------------------------------|


e:3---3---3-3---3---3---3-3---3---4---4---4-4---4---4---4-4---4-|
B:3---3---3-3---3---3---3-3---3---4---4---4-4---4---4---4-4---4-|
G:4---4---4-4---4---4---4-4---4---5---5---5-5---5---5---5-5---5-|
D:5---5---5-5---5---5---5-5---5---6---6---6-6---6---6---6-6---6-|
A:5---5---5-5---5---5---5-5---5---6---6---6-6---6---6---6-6---6-|
E:3---3---3-3---3---3---3-3---3---4---4---4-4---4---4---4-4---4-|

e:5---5---5-5---5---5---5-5---5-|
B:5---5---5-5---5---5---5-5---5-|
G:6---6---6-6---6---6---6-6---6-|
D:7---7---7-7---7---7---7-7---7-|
A:7---7---7-7---7---7---7-7---7-|
E:5---5---5-5---5---5---5-5---7-|

e:3---3---3-3---3---3---3-3---3---4---4---4-4---4---4---4-4---4-|
B:3---3---3-3---3---3---3-3---3---4---4---4-4---4---4---4-4---4-|
G:4---4---4-4---4---4---4-4---4---5---5---5-5---5---5---5-5---5-|
D:5---5---5-5---5---5---5-5---5---6---6---6-6---6---6---6-6---6-|
A:5---5---5-5---5---5---5-5---5---6---6---6-6---6---6---6-6---6-|
E:3---3---3-3---3---3---3-3---3---4---4---4-4---4---4---4-4---4-|

e:5---5---5-5---5---5---5-5---5-|
B:5---5---5-5---5---5---5-5---5-|
G:6---6---6-6---6---6---6-6---6-|
D:7---7---7-7---7---7---7-7---7-|
A:7---7---7-7---7---7---7-7---7-|
E:5---5---5-5---5---5---5-5---7-|


e:33333333333333444444444444443333333333333344444444444444455555555555
B:33333333333333444444444444443333333333333344444444444444455555555555
G:44444444444444555555555555554444444444444455555555555555566666666666
D:55555555555555666666666666665555555555555566666666666666677777777777
A:55555555555555666666666666665555555555555566666666666666677777777777
E:33333333333333444444444444443333333333333444444444444444455555555555

and thats all the lady song hope you enjoyed it question comments A.Ghiringhello
Tap to rate this tab
# A B C D E F G H I J K L M N O P Q R S T U V W X Y Z