Song name
# A B C D E F G H I J K L M N O P Q R S T U V W X Y Z

Lenny Kravitz - Flash tab

intro/main riff :
-----------------------------------------------------------------------------------|
-----------------------------------------------------------------------------------|
-----------------------------------------------------------------------------------|
-----------------------------------------------------------------------------------|
---11--11-13-13-11------9--9--11-11-9------4--4--6--6--4-------7--7-----9--9-------|   3x
---9---9--9--9--9-------7--7--7--7--7------2--2--2--2--2-------5--5-----7--7-------|

-----------------------------------------------------------------------------------|
-----------------------------------------------------------------------------------|
-----------------------------------------------------------------------------------|
-----------------------------------------------------------------------------------|
---11--11-13-13-11------9--9--11-11-9------4--4-------4-6p4----7--7----9--9--------|
---9---9--9--9--9-------7--7--7--7--7------2--2----s6-------5--5--5----7--7--------|


verse :
---------------|--------------|---------|-------------|-------------|--------------|
---------------|--------------|---------|-------------|-------------|--------------|
---------4-----|-------4------|---------|-------4--4--|--4----4--2--|--2----4--4---|
-4--4----4--4--|--4----4--4---|----5x---|--4----4--4--|--4----4--2--|--2----4--4---|
-4--4----2--4--|--4----2--4---|---------|--4----2--2--|--2----2--0--|--0----2--2---|
-2--2-------2--|--2-------2---|---------|--2----------|-------------|--------------|

---------------|--------------|---------|-------------|-------------|--------------|
---------------|--------------|---------|-------------|-------------|--------------|
---------4-----|-------4------|---------|-------4--4--|--4----4--2--|--2----4--4---|
-4--4----4--4--|--4----4--4---|----3x---|--4----4--4--|--4----4--2--|--2----4--4---|
-4--4----2--4--|--4----2--4---|---------|--4----2--2--|--2----2--0--|--0----2--2---|
-2--2-------2--|--2-------2---|---------|--2----------|-------------|--------------|


main riff 1x

verse 1x

main riff (same as intro, 4 times)


BRIDGE  (02:26)
------------------------------------------------------------------------------------------------------------------|
------------------------------------------------------------------------------------------------------------------|
------------------------------------------------------------------------------------------------------------------|
-7--7----7--7----7----7--9----9----9--9----9----9--7----7----7--7----7----7--9--11----11----11-11----11---11-9-7--|
-7--7----7--7----7----7--9----9----9--9----9----9--7----7----7--7----7----7--9--11----11----11-11----11---11-9-7--|
-5--5----5--5----5----5--7----7----7--7----7----7--5----5----5--5----5----5--7--9-----9-----9---9----9----9--7-5--|

------------------------------------------------------------------------------------------------------------------|
------------------------------------------------------------------------------------------------------------------|
------------------------------------------------------------------------------------------------------------------|
----7----7--7----7----7--9----9----9--9----9----9--7----7----7--7----7----7-9-9-11----11----11-11----11----11-----|
----7----7--7----7----7--9----9----9--9----9----9--7----7----7--7----7----7-9-9-11----11----11-11----11----11-----|
----5----5--5----5----5--7----7----7--7----7----7--5----5----5--5----5----5-7-7-9-----9-----9--9-----9-----9------|

(02:55)
   Guitar 1 : play verse many times and fade out

   Guitar 2 : solo :

---------9---------|         |--------------------------------------------|
-------9---12p9----|         |-----9h12p9---------------------------------|
---b11-------------|         |--11--------11--9--11p9----9--11p9----------|
-------------------|         |------------------------11---------11-9-11--|
-------------------|   X7    |--------------------------------------------|
-------------------|         |--------------------------------------------|

------------9----------------|----------9----------------|
----------9---9---b12--b12---|--------9---9--b12--b12----|
--9--b11---------------------|---b11---------------------|
-----------------------------|---------------------------|
-----------------------------|---------------------------|
-----------------------------|---------------------------|

---------9-----b12r12---9---------12--14--b14r14p12--14-12--b14------------|
-------9---9---------------12s14---------------------------------14--------|
--b11----------------------------------------------------------------------|
---------------------------------------------------------------------------|
---------------------------------------------------------------------------|
---------------------------------------------------------------------------|

                                          TABBED BY \'TROOVEROHREV\'
Tap to rate this tab
# A B C D E F G H I J K L M N O P Q R S T U V W X Y Z