Song name
# A B C D E F G H I J K L M N O P Q R S T U V W X Y Z

Lenny Kravitz - Confused tab

Verse:
e|---5----------------------------------5-------------------------------------|
B|---6----------------------------------5-------------------------------------|
G|---7----------------------------------6-------------------------------------|
D|---7----------------------------------7-------------------------------------|
A|---5----------------------------------7-------------------------------------|
E|--------------------------------------5-------------------------------------|
    Talking bout a woman....               Talking bout a man.

e|-------------------------------------------------------------5--------------|
B|-----8----8...--------------10-------10----------------------5--------------|
G|------7----7...----------------8-------9---------------------6--------------|
D|-------8----8....----------------10-----10-------------------7--------------|
A|-------------------------------------------------------------7--------------|
E|-------------------------------------------------------------5--------------|
     The clock...                      And my heart is on the rocks

Chorus:
e|-----5------------------------------------5---------------------------------|
B|-----6------------------------------------5---------------------------------|
G|-----7------------------------------------6---------------------------------|
D|-----7------------------------------------7---------------------------------|
A|-----5------------------------------------7---------------------------------|
E|------------------------------------------5---------------------------------|
   Im confused....                      Sooo confused....

e|----------------------------------------------------------------------------|
B|-----8,,---------------10..-------------------------------------------------|
G|-------7,,----------------9..---------------5------6------------------------|
D|---------8,,-----------------10..-------------6------7----------------------|
A|----------------------------------------------------------------------------|
E|------------------------------------------4------5--------------------------|
   And i got to .............. with my views..
Tap to rate this tab
 
# A B C D E F G H I J K L M N O P Q R S T U V W X Y Z