Song name
# A B C D E F G H I J K L M N O P Q R S T U V W X Y Z

Lenny Kravitz - I Love The Rain tab

Help us improve GuitareTab! Take a short survey!
1st   ----------------8-------8-------8-------8-----------------------------|
2nd   --10---10-12----12bend--12bend--12bend--12bend--10--10-12(hammor on)--|
3rd   --12/bend-----------------------------------------------------9-------|
4th   ----------------------------------------------------------------------|
5th   ----------------------------------------------------------------------|
6th   ----------------------------------------------------------------------|


1st   ----------------------------------------------------------------------|
2nd   ----------------------------------------------------------------------|
3rd   --9-10-9-----9-10-9-----9-10-9-----9-10-9--------7bend--7-5-5-7-5-4/0-|
4th   ---------10---------10---------10--------10---------------------------|
5th   ----------------------------------------------------------------------|
6th   ----------------------------------------------------------------------|


Rythem chords:Am    C    F      Em


1st   -----------------------------------------------------------------------|
2nd   -----------------------------------------------------------------------|
3rd   -----------------------------------------------------------------------|
4th   -----------------------------------------------------------------------|
5th   ----7----5-----3-4-5---3-4-5---5----7----------------------------------|
6th   ----5----3---------------------3----5----------------------------------|      X2


 I'll put the solo up next.
Related for I Love The Rain tab