Song name
# A B C D E F G H I J K L M N O P Q R S T U V W X Y Z

Lenny Kravitz - Love Love Love tab

Lenny Kravitz - love love love guitar tabs
Guitar tuning: Standart EADGBE

INTRO

E|--------------------5---| \
B|--------------------5---|  \
G|--------------------5---|   \ MAIN RIFF (Play 7 times)
D|------------------------|   /
A|------------------------|  /
E|--8-5--5--5--5--5-5-----| /


E|------------------------| \
B|------------------------|  \
G|------------------------|   \ MAIN RIFF END (Play this 1x after the intro)
D|--------------------8---|   / 
A|--------------------8---|  / 
E|--8-5--5--5--5--5-5-6---| /

VERSE 1

Play main riff 4 times

E|--------------------5----------| 
B|--------------------5----------| 
G|--------------------5----------| 
D|-------------------------------| 
A|-------------------------------| 
E|--3-3--3--3--3--3-3------------| 

E|--------------------5----------| 
B|--------------------5----------| 
G|--------------------5----------| 
D|-------------------------------| 
A|-------------------------------| 
E|--2-2--2--2--2--2-2------------| 

Play Main riff 1x and end 1x

VERSE 2

Play main riff 4 times

E|--------------------5----------| 
B|--------------------5----------| 
G|--------------------5----------| 
D|-------------------------------| 
A|-------------------------------| 
E|--3-3--3--3--3--3-3------------| 

E|--------------------5----------| 
B|--------------------5----------| 
G|--------------------5----------| 
D|-------------------------------| 
A|-------------------------------| 
E|--2-2--2--2--2--2-2------------| 

Play Main riff 1x and end 1x

CHORUS

E|-----------------------------| 
B|-----------------------------| 
G|-----------------------------| 
D|-----------------------------| 
A|-----------------------------| 
E|--2-2--2--2--2--2--2-2--2-2--| 

E|-----------------------------| 
B|-----------------------------| 
G|-----------------------------| 
D|-----------------------------| 
A|-----------------------------| 
E|--1-1--1--1--1--1--1-1--1-1--| 

E|-----------------------------| 
B|-----------------------------| 
G|-----------------------------| 
D|-----------------------------| 
A|-----------------------------| 
E|--5-5--5--5--5--5--5-5--5-5--| 

E|-----------------------------| 
B|-----------------------------| 
G|-----------------------------| 
D|-----------------------------| 
A|-----------------------------| 
E|--7-7--7--7--7--7--7-7--7-7--| 

E|-----------------------------| 
B|-----------------------------| 
G|-----------------------------| 
D|-----------------------------| 
A|-----------------------------| 
E|--3-3--3--3--3--3--3-3--3-3--| 

E|-----------------------------| 
B|-----------------------------| 
G|-----------------------------| 
D|-----------------------------| 
A|-----------------------------| 
E|--6-6--6--6--6--6--6-6--6-6--| 

Made by HK
Tap to rate this tab
 
# A B C D E F G H I J K L M N O P Q R S T U V W X Y Z