Song name
# A B C D E F G H I J K L M N O P Q R S T U V W X Y Z

Lenny Kravitz - Beyond The 7th Sky tab

BEYOND THE 7TH SKY

Lenny Kravitz

Transcribed by Danleary

Standard Tuning

Key

 ^  : Bend [1/4, 1/2, 1, etc.]
 v  : Bring bend back down
 /  : Slide into
 \  : Slide out of
 h  : Hammer on
 p  : Pull off
(-) : Ghost note
 =  : Vibrato
 x  : Mute
_____________________________________________________________________________

Intro

0:00           0:01                             0:04                     
                       [1/4]                            [1/4]
e|--7-5-7-5-----|-5---------------5-7-5-7-5-----|-5-------------------------|
B|--7-5-7-5-----|-5---------------5-7-5-7-5-----|-5-------------------------|
G|--7-5-7-5-----|-5---------2===--5-7-5-7-5-----|-5-------------------------|
D|----------5---|----7----------------------5---|----7\------2--------------|
A|------------5-|-------3^--------------------5-|--------3^--0--------------|
E|--------------|-------------------------------|---------------------------|
                                                                       Repeat
_____________________________________________________________________________

Verse

0:14           0:16          0:20          0:24          0:27          0:31

e|--7-5-7-5-----|-------------|-------------|-------------|-------------|
B|--7-5-7-5-----|-------------|-------------|-------------|-------------|
G|--7-5-7-5-----|-------------|-------------|-------------|-------------|
D|----------5---|-------------|-------------|-------------|-------------|
A|------------5-|-0--0-----0--|----0-----0--|----0-----0--|----0-----0--|
E|--------------|-------------|-------------|-------------|-------------|


0:31          0:35          0:38          0:42                           0:46
                                             [1/4] [1/4]
e|-------------|-------------|-------------|----------------5-7-5-7-5-----|
B|-------------|-------------|-------------|----------------5-7-5-7-5-----|
G|-------------|-------------|-------------|-----2-----2----5-7-5-7-5-----|
D|-------------|-------------|-------------|-----2-----2--------------7-5-|
A|----0-----0--|----0-----0--|----0-----0--|--3^-0-----0------------------|
E|-------------|-------------|-------------|--------3^--------------------|


0:46          

e|-------------|
B|-------------|
G|-2-----------|
D|-2-----------|
A|-0-------0---|
E|-------------|
_____________________________________________________________________________

Bridge

Guitar I

       1:16       1:19                                  1:23             1:27
                                           
e|----|------------|-------------------------------------|------------------|
B|----|5-----------|-------------------------------------|-7----------------|
G|----|5-----------|-------------------------------------|-7----------------|
D|----|5-----------|-------------------------------------|-7----------------|
A|----|3-----------|-------------------------------------|-5----------------|
E|----|------------|-------------------------------------|------------------|

Guitar II

       1:16       1:19                                  1:23             1:27
                        [1]    
e|--5/|8-----------|-10^v(10)-8----8---------------------|-------8-----12---|
B|--5/|8-----------|------------10---8---8---------------|-7-----8-----12---|
G|--6/|9-----------|-------------------9---9-7-5-7-5---5-|-7-----9-----12---|
D|----|------------|---------------------------------7---|-7----------------|
A|----|------------|-------------------------------------|-5----------------|
E|----|------------|-------------------------------------|------------------|


Guitar I

1:27                        1:30                               1:34
                               [1/4] [1/4]
e|---------------------------|---------------------7-5-7-5------|
B|---------------------------|--------1^-----------7-5-7-5------|
G|---------------------------|-----------2===---/5-7-5-7-5------|
D|---------------------------|------------------------------5---|
A|-------------3-3-0-3-3-3-0-|-3^--0--------------------------5-|
E|---------------------------|----------------------------------|
_____________________________________________________________________________

Guitar I

3:00                             3:04          3:08

e|--------------------------------|-------------|-------------|
B|------------------------5==-----|-------------|-------------|
G|----------------5-6-7-------7-5-|-------------|-------------|
D|---------5-6-7------------------|-------------|-------------|
A|--5-6-7-------------------------|-------------|-------------|
E|--------------------------------|-------------|-------------|
Tap to rate this tab
# A B C D E F G H I J K L M N O P Q R S T U V W X Y Z