Song name
# A B C D E F G H I J K L M N O P Q R S T U V W X Y Z

Lenny Kravitz - Will You Marry Me tab

-------------------------------------------------------------------------------
			     Will You Mary Me - Lenny Kravitz
-------------------------------------------------------------------------------
Tabbed by: Vangogh161

e|-------------------------------|-------------10--x-11---11--10\--|
B|-------------------------------|-------------10--x-11---11--10\--|
G|---------------------3/--4-----|-------------10--x-11---11--10\--|
D|--5p-3---------------2/--3-----|--------------9--x-10---10---9\--|
A|-------4h-5--------------------|-----2/--10--10--x-11---11--10\--|
E|------------3---------------3--|---------------------------------|


e|-------------------------------|---------------------|
B|-------------------------------|---------------------|
G|---------------------3/--4--3--|-----4~~-------------|
D|--5p-3---------------2/--3--2--|-----3~~-------------|
A|-------4h-5--------------------|---------------------|
E|------------3------------------|---------------------|

Repeat pattern throughout the whole song. Improvise on the ending of the last bar. 


************************************

| /   slide up
| \   slide down
| h   hammer-on
| p   pull-off
| ~   vibrato
| +   harmonic
| x   Mute note
| b   Bend
| pb  Pre-bend
| br  Bend release
| pbr Pre-bend release
| brb Bend release bend

************************************
Tap to rate this tab
# A B C D E F G H I J K L M N O P Q R S T U V W X Y Z