Lenny Kravitz - Are You Gonna Go My Way tab

----------------------------------------------------------------------------
			     Are You Gunna Go My Way - Lenny Kravitz 
----------------------------------------------------------------------------
Tabbed by: Washya
Email:

Tuning: Standard (EADgbe) 
Intro/Verses/Main Riff
e|------------------------------------------------|
B|------------------------------------------------|
G|-12h14p12--------------12h14p12-------------12~-|
D|----------14----12-14-----------14----12-14-----|
A|-------------14--------------------14-----------|
E|------------------------------------------------|

Chorus
"but what I really wanna know is......... ARE YOU GUNNA GO MY WAY"
e|----------------------------------------------|
B|----------------------------------------------|
G|-9-9/7\9--9/10\9--9-9-8-8-7-7-5-5-4-4-2-2-----|
D|-9-9/7\9--9/10\9--9-9-8-8-7-7-5-5-4-4-2-2-----|
A|-7-7/5\7--7/8\7---7-7-6-6-5-5-4-4-2-2-0-0-----|
E|----------------------------------------------|

Outro

Same as intro

Tap to rate this tab
 
# A B C D E F G H I J K L M N O P Q R S T U V W X Y Z