Song name
# A B C D E F G H I J K L M N O P Q R S T U V W X Y Z

Lenny Kravitz - Come On Get It tab

LENNY KRAVITZ 'COME ON GET IT' (NEGROPHILIA)

Tabbed from the Lenny's new NBA video on YouTube
(http://www.youtube.com/watch?v=QPksYDzmwd4)

Standard EADGBe tuning

(To be edited)


---------------------------------------------------------------|   main riff
---------------------------------------------------------------|
---------------------------------------------------------------|
---------------------------------------------------------------|
--------------3b---------------------3b-----------------5-3----|
---3--5--x-x------5--x-x--3--5--x-x------5--x-x--3h5p3---------|



---------------------------------------------------------------------|
---------------------------------------------------------------------|
---9-x-8-x-7-----------------------7-x-6-x-5-------------------------|
---9-x-8-x-7--------(notes)--------7-x-6-x-5--------(notes)----------|
---7-x-6-x-5-----------------------5-x-4-x-3-------------------------|
---------------------------------------------------------------------|   (x2)



---------------------------------------------------------------|
---------------------------------------------------------------|
---------------------------------------------------------------|
---5555555544444444--------------------------------------------|
---5555555544444444--------------------------------------------|   (then back
---7777777766666666---(slide up)-------------------------------|    to main)
Tap to rate this tab
 
# A B C D E F G H I J K L M N O P Q R S T U V W X Y Z