Song name
# A B C D E F G H I J K L M N O P Q R S T U V W X Y Z

Lenny Kravitz - If You Cant Say No tab

Hallo, my name is Vladimir, Im from Serbia.




         Lenny Kravitz - If you cant say no
                (album: 5, 1998)



Tabbed by: Chorbay
Email: tordajav@yahoo.com


Solo starts at 2:23


      Em           Bm            Em               Bm
e|----7----------------------------------------------------|
B|----x----5/7\5-3-5p3---------3-5/7-5----3-5-3------------|
G|----x---------------4----2/4------------------4-2/4------|
D|----x----------------------------------------------------|
A|---------------------------------------------------------|
E|---------------------------------------------------------|

          Em                 Bm             Em               Bm
e|----10-10/12---10-12/14\12-10-7-----------------------------------|
B|----x----------------------------------3-5/7-5--3-5-5/7-5---------|
G|----x------------------------------2/4--------------------4-2/4---|
D|------------------------------------------------------------------|
A|------------------------------------------------------------------|
E|------------------------------------------------------------------|


Solo ends at 2:48


| /  slide up
| \  slide down
| p  pull-off


Any comments post me at tordajav@yahoo.com
Tap to rate this tab
# A B C D E F G H I J K L M N O P Q R S T U V W X Y Z