Song name
# A B C D E F G H I J K L M N O P Q R S T U V W X Y Z

Lenny Kravitz - Rock Star City Life tab

-------------------------------------------------------------------------------
			     ROCK STAR CITY LIFE - Lenny Kravitz
-------------------------------------------------------------------------------

Tabbed by: AlexJohnston

Tuning:

e|-------------------------------------| (.1)
B|-------------------------------------|
G|-------------------------------------|
D|------------------12-12-12-----------|
A|----9-9-9--12-12--10-10-10--12-12----|   
E|----7-7-7--10-10------------10-10----| (X7)

e|-----------------------| (.2)
B|-----------------------|
G|-----------------------|
D|-----------------------|
A|----7-7-7-7-7-7-7-7----|
E|----5-5-5-5-5-5-5-5----| 

e|-------------------------------------|
B|-------------------------------------|
G|-------------------------------------|
D|------------------12-12-12-----------|
A|----9-9-9--12-12--10-10-10--12-12----|   
E|----7-7-7--10-10------------10-10----| (X3)

e|-----------------------|
B|-----------------------|
G|-----------------------|
D|-----------------------|
A|----7-7-7-7-7-7-7-7----|
E|----5-5-5-5-5-5-5-5----|

e|-----------------------------------------------------------------------| (.3)
B|-----------------------------------------------------------------------|
G|-----------------------------------------------------------------------|
D|----7-7-77-7-77--9-9-99-9-99--11-11-1111-11-1111-11-1111-11-1111-11----|
A|----5-5-55-5-55--7-7-77-7-77---9--9--9-9--9--9-9--9--9-9--9--9-9--9----|
E|-----------------------------------------------------------------------| (X2)



  -(.1) x7
  -(.2) x1
  -(.1) x3
  -(.2) x1
  -(.3) x2
  -(.1) x8




  (SOLO)

e|---------------------------------------------------------------------------|
B|---------------------------------------------------------------------------|
G|----9b(11)pb9(11)--9b(11)pb9(11)--9b(11)pb9(11)--9(br11)p7-----------------|
D|-----------------------------------------------------------9---------------|
A|---------------------------------------------------------------------------|   
E|---------------------------------------------------------------------------| (X3)

e|------------------------------------|
B|------------------------------------|
G|------------------------------------|
D|------------------------------------|
A|----9b(11)----/14(hold, then) ~ ----|
E|------------------------------------| 



  -(.3) x2
  -(.1) x8



   have fun!
 

************************************

| /   slide up
| \   slide down
| h   hammer-on
| p   pull-off
| ~   vibrato
| +   harmonic
| x   Mute note
| b   Bend
| pb  Pre-bend
| br  Bend release
| pbr Pre-bend release
| brb Bend release bend

************************************
Tap to rate this tab
# A B C D E F G H I J K L M N O P Q R S T U V W X Y Z