Song name
# A B C D E F G H I J K L M N O P Q R S T U V W X Y Z

Lenny Kravitz - If I Could Fall In Love tab

-15-----15----15--------------------|
-15b17--15b17-15b17-15--13-15-13----|
------------------------------------|
------------------------------------|
------------------------------------|
------------------------------------|

------------15--15----15------------|
-15-13-15b17----15b17-15b17-15-13---|
---------------------------------14-|
------------------------------------|
------------------------------------|
------------------------------------|

-20-----20----20--------------------|
-20b22--20b22-20b22-18--17-18-17----|
------------------------------------|
------------------------------------|
------------------------------------|
------------------------------------|

-5s7-7s8-8s10-10s12-12-15-15bu17bd15bu17-|
-----------------------------------------|
-----------------------------------------|
-----------------------------------------|
-----------------------------------------|

bu-bend up bd- bend down
Tap to rate this tab
 
# A B C D E F G H I J K L M N O P Q R S T U V W X Y Z