Song name
# A B C D E F G H I J K L M N O P Q R S T U V W X Y Z

Lenny Kravitz - Be Acoustic tab

-------------------------------------------------------------------------------
                             Be-Lenny Kravitz
-------------------------------------------------------------------------------
Tabbed by:IonRaduMihnea
E-mail:ionradumihnea@yahoo.com

This is the unplugged version of the song 'Be' by Lenny Kravitz, played in New York in 2007 
at UNplugged VH1

Standard tuning

I've structured this tab in 2 parts. The song starts with C.Ross playing part1
on top of witch Lenny plays that small solo and the rest of the song is part2 
looped. Minor differents are in the licks at the end if the loop in in between
(licks in the key of G).Listen to the track for better understanding.
ionradumihnea@yahoo.com if there are problems
thanks.


part 1.(Craig Ross)

e|-----3-(~)---13---(5)------13---3-(~)---13---3-(~)-------------------------|
B|-----3-(~)---11----x-------11---3-(~)---11--(3)-(~)------------------------|
G|-----3-(~)---10----5-(~)---10---3-(~)---10---3-(~)-------3--3h5p3----------|
D|-----3-(~)---12----4-(~)---12---3-(~)---12---2-(~)---4/5-----------5--3----|
A|-----5-(~)---10----5-(~)---10---3-(~)---10---3-(~)-------------------------|
E|-----3-(~)---------x------------x------------x-----------------------------|

intro solo.(Lenny Kravitz)

e|----------------------------------------------6---6--6h8---8b8br3--3h8-8~--|
B|--------------------6----------6--8-8~----------8--------------------------|
G|----5b~-5br--3----------5b~------------------------------------------------|
D|----------------5----------------------------------------------------------|
A|---------------------------------------------------------------------------|
E|---------------------------------------------------------------------------|

e|----8-6-8-8b-6-----------------------------------13------------------------|
B|---------------8~----5b-3---3--3h5-5--5b~-----13b----13b-13b-13b-13b-------|
G|--------------------------5------------------------------------------------|
D|---------------------------------------------------------------------------|
A|---------------------------------------------------------------------------|
E|---------------------------------------------------------------------------|

e|---------------------------------------------------------------------------|
B|----13-12-12-13-12-13~-----------------------------------------------------|
G|---------------------------------------------------------------------------|
D|---------------------------------------------------------------------------|
A|---------------------------------------------------------------------------|
E|---------------------------------------------------------------------------|

part 2_the loop.(Craig Ross)

e|-----3-(~)---13---(5)------13---3-(~)---13---3-(~)-------------------------|
B|-----3-(~)---11----x-------11---3-(~)---11--(3)-(~)------------------------|
G|-----3-(~)---10----5-(~)---10---3-(~)---10---3-(~)----3h5--3---------------|
D|-----3-(~)---12----4-(~)---12---3-(~)---12---2-(~)------------5--3---------|
A|-----5-(~)---10----5-(~)---10---3-(~)---10---3-(~)-------------------------|
E|-----3-(~)---------x------------x------------x-----------------------------|

e|-----3-(~)---13---(5)------13---3-(~)---13-------3-------------------------|
B|-----3-(~)---11----x-------11---3-(~)---11------3------------4(~)---6\x----|
G|-----3-(~)---10----5-(~)---10---3-(~)---10-----3-------------0(~)---5\x----|
D|-----3-(~)---12----4-(~)---12---3-(~)---12----2-------4/5----5(~)---4\x----|
A|-----5-(~)---10----5-(~)---10---3-(~)---10---3--------5/6----6(~)---5\x----|
E|-----3-(~)---------x------------x------------------------------------------|



************************************

| /   slide up
| \   slide down
| h   hammer-on
| p   pull-off
| ~   vibrato
| +   harmonic
| x   Mute note
| b   Bend
| pb  Pre-bend
| br  Bend release
| pbr Pre-bend release
| brb Bend release bend
| (~) Let it ring

************************************
Tap to rate this tab
# A B C D E F G H I J K L M N O P Q R S T U V W X Y Z