Song name
# A B C D E F G H I J K L M N O P Q R S T U V W X Y Z

Lenny Kravitz - It Aint Over Till Its Over chords

Tabbed by: rkf84
Capo: 1st fret

(1st Verse)
C          CMaj7
Here we are
     C9
still together
             F       Fm7
We are one
C         CMaj7           C9                          F          Fm7
So much time wasted Playing games with love

(Chorus)
C                                 CMaj7
So many tears I've cried
                           C9
So much pain inside
                                   F                 Fm7
But baby It ain't over 'til it's over
C                                 CMaj7
So many years we've tried
                          C9
To keep our love alive
                                   F                 Fm7
But baby it ain't over 'til it's over

(2nd Verse)
C                CMaj7
How many times
                       C9
Did we give up
                                  F                  Fm7
But we always worked things out
C
And all my doubts and fears
   CMaj7
Kept me wondering, yeah
             C9                  F                Fm7
If I'd always, always be in love

(Chorus)
C                                 CMaj7
So many tears I've cried
                           C9
So much pain inside
                                   F                 Fm7
But baby It ain't over 'til it's over
C                                 CMaj7
So many years we've tried
                          C9
To keep our love alive
                                   F                 Fm7
But baby it ain't over 'til it's over

(Bridge)-Same rhythm as verse
Solo played over chords: G# A# Fm Gm G# A# B C# D#

          G#              A#                                               Fm                 Gm
e|----14b16---14-14-14-16-14s0-----------12------------------------------------|
B|----------------------------------12-14---14s0----12b14--12-12-12-14-12s0----|
G|-----------------------------------------------------------------------------|
D|-----------------------------------------------------------------------------|
A|-----------------------------------------------------------------------------|
E|-----------------------------------------------------------------------------|
          G#                                                  A#
e|-----------------------------------------------------------------------------|
B|-----------------------------------------------------------------------------|
G|----12b14-14-14--11---14b16-14-13-11-11-11-11-13-11s0------------------------|
D|-----------------------------------------------------------------------------|
A|-----------------------------------------------------------------------------|
E|-----------------------------------------------------------------------------|
        B                                                   C#                                   D#
e|-----------------------------------------------------------------------------|
B|------------------------------------------------15-15b17---------------------|
G|--15po14--15po14--15po14--15po15--15po14-------------------------------------|
D|-----------------------------------------------------------------------------|
A|-----------------------------------------------------------------------------|
E|-----------------------------------------------------------------------------|


Chorus repeats: 3 times

Fades
Tap to rate this tab
# A B C D E F G H I J K L M N O P Q R S T U V W X Y Z