Song name
# A B C D E F G H I J K L M N O P Q R S T U V W X Y Z

Lenny Kravitz - Rock Star City Life tab

Lenny Kravitz - Rock Star City Life
------------------------------------

| /   slide up
| \   slide down
| h   hammer-on
| p   pull-off
| ~   vibrato
| +   harmonic
| x   Mute note
| b   Bend
| ( ) optional or only in some parts of the song

Intro:
E|---------------------------------|---------------------------------|
B|---------------------------------|---------------------------------|
G|----------------(x)--7---7-------|---------------------7---7-------|
D|-9---9---9------(x)--7---7-------|-5---5---5-----------7---7-------|
A|-9---9---9------(x)--5---5-------|-5---5---5-----------5---5-------|
E|-7---7---7------------------(5/)-|-3---3---3--------------------5/-|  4X

Verse:
E|---------------------------------|---------------------------------|
B|---------------------------------|---------------------------------|
G|----------------(x)--7---7-------|---------------------7---7-------|
D|-9---9---9------(x)--7---7-------|-5---5---5-----------7---7-------|
A|-9---9---9------(x)--5---5-------|-5---5---5-----------5---5-------|
E|-7---7---7------------------(5/)-|-3---3---3--------------------5/-|  3X


e|-5---5---5---5---5---5---5---5---|
B|-5---5---5---5---5---5---5---5---|
G|-6---6---6---6---6---6---6---6---|
D|-7---7---7---7---7---7---7---7---|
A|-7---7---7---7---7---7---7---7---|
E|-5---5---5---5---5---5---5---5---|

Chorus:

E|---------------------------------|---------------------------------|---------------------------------|
B|---------------------------------|---------------------------------|---------------------------------|
G|-7-------7---7-------7---7---7---|-9-------9---9-------9---9---9---|-11------11--11------11--11--11--|
D|-7-------7---7-------7---7---7---|-9-------9---9-------9---9---9---|-11------11--11------11--11--11--|
A|-5-------5---5-------5---5---5---|-7-------7---7-------7---7---7---|-9-------9---9-------9---9---9---|
E|---------------------------------|---------------------------------|---------------------------------|


E|---------------------------------|
B|---------------------------------|
G|-11--11--11--11--11--11--11--11--|
D|-11--11--11--11--11--11--11--11--|
A|-9---9---9---9---9---9---9---9---|
E|---------------------------------| 2X

Solo:

E|---------------------|-------------------------------|
B|---------------------|-------------------------------|
G|------9b11----9b11---|------9b11----9b11r9--7--------|
D|---------------------|-------------------------9-----|
A|---------------------|-------------------------------|
E|---------------------|-------------------------------| 3X

E|---------------------|
B|---------------8b10--|
G|------9b11-----------|
D|---------------------|
A|---------------------|
E|---------------------|
Tap to rate this tab
# A B C D E F G H I J K L M N O P Q R S T U V W X Y Z