Song name
# A B C D E F G H I J K L M N O P Q R S T U V W X Y Z

Lenny Kravitz - Yesterday Is Gone tab

Artist: Lenny Kravitz
Song: Yesterday is gone (Solo)
Tuning: Standard
Tabbed by: Flexus13

Hi guys!

I guess this is a quite good version. I think two or three notes are not 100% correct,
due to all that fast sliding and bending in this solo it's hard to figure them out
To play this solo as smooth as possible, be aware that you use the right fingers, 
you will get in trouble!!

Have fun!


 E|--------------------------|---------------------------15---------|
 B|-----13-15b17r15p13-------|------13-15b17r15p13-15b17----15b17~~~|
 G|-/14----------------14~~~-|-/14-|--------------------------------|
 D|--------------------------|--------------------------------------|
 A|--------------------------|--------------------------------------|
 E|--------------------------|--------------------------------------|

E|--------------------------|--------------------------------------------|
 B|-----13-15b17r15p13------|-13p12--------------------------------------|
 G|-/14----------------14~~~|-------14-12-12h14p12-----------------------|
 D|-------------------------|----------------------12\10-12b13r12p10-----|
 A|-------------------------|----------------------------------------12--|
 E|-------------------------|--------------------------------------------|


 E|----------------------------|-----------------------------------------|
 B|----------13----------------|-----------------------------------------|
 G|-12h14~~--12---14p12--------|-----------------------------------------|
 D|---------------------12\(?)-|-----------------------------------------|
 A|----------------------------|3333/5-6666/8-9/10-----------------------|
 E|----------------------------|1111/3-4444/6-7/8------------------------|

 E|------------------------------------------------------13r12------------|
 B|-------------------------13--15b17r15p13---15b17r15~~--------13/15-----|
 G|----------------12-12/14-----------------------------------------------|
 D|-------10-12/14------------------------------------------------------- |
 A|-10/12-----------------------------------------------------------------|
 E|-----------------------------------------------------------------------|
Tap to rate this tab
# A B C D E F G H I J K L M N O P Q R S T U V W X Y Z