Guitaretab - guitar tabs
Song name
# A B C D E F G H I J K L M N O P Q R S T U V W X Y Z

Lenny Kravitz - Baptized tab

i hadn't seen one yet, so i listened to the song and picked out the solo. you can play 
on the strings in any combination you want, whatever's most comfortable for you, this is 
to give you the notes. as always, listen to the song for rests and emphasis and whatnot
e------------------------------------------------------------------------|
b--9b11~11r9----9-9b11-9b11~11r9----9-13b14r13-11-13-11------------------|
g------------\10------------------10---------------------13-10-13-13b15~-|
d------------------------------------------------------------------------|
a------------------------------------------------------------------------|
E------------------------------------------------------------------------|
[ Tab from: http://www.guitaretab.com/l/lenny-kravitz/50024.html ]
e----------------------------------/11b13~13r11----11-------11-------11-|
b--11h13-14-13-14b16~-14-11-11~\0---------------14----14b16----14b16----|
g-----------------------------------------------------------------------|
d-----------------------------------------------------------------------|
a-----------------------------------------------------------------------|
E-----------------------------------------------------------------------|

e-------------------------------------------------|
b-14b16r14-11~-11-13-13b14r-13-14b16~r14-11-11~~\-|
g-------------------------------------------------|
d-------------------------------------------------|
a-------------------------------------------------|
E-------------------------------------------------|
Related for Baptized tab
Advertisement will be closed in 10 seconds