Song name
# A B C D E F G H I J K L M N O P Q R S T U V W X Y Z

Lenny Kravitz - Minister Of Rock N Roll tab

Esta rola se la dedico al Pelón Lacroso Sabotajes y a Karina González (de la Voca 3) no
sé que haría sin ellos.

Esta canción no lleva acordes desde el intro hasta el primer verso.

NC
I'm the minister of Rock N Roll
I can heal you
                    A#      
I can save your soul
  C                          NC
    You better stop foolin' around

I can touch you
I can make you whole
                                    A#
I can bless it so it doesn't get old
   C                         NC
    Come on and turn it up loud

  A#         C
    You can call me
          G                 A#
    You know I'll be right there
             C
    You can call me
             G            A#    NC
    And I'll be standing there


I'm the minister of Rock N Roll
I'll make you freak and
Make you lose control

I'm a minister of Rock N Roll
                                      A#  
Highway to Heaven and your pot of gold
   C                       NC
    Come on and join the crowd

I'm a fire when you're feeling cold
I'll make you freak
                         A#
And make you lose control
   C                         NC
    What are you waiting for now?

  A#         C
    You can call me
          G                  A#   
    You know I'll be right there
             
    You can call me
         C                 G       
    And I'll be standing there

    G-G-F-G-F-G

    Solo guitarra líder:

e|-------------------------------------------------------6vv-----|
B|-8b10---10-10-10-10-10-10-10-10-10-10r8p5----------6-8---------|
G|------------------------------------------7---/5-7-------------|
D|---------------------------------------------------------------|
A|---------------------------------------------------------------|
E|---------------------------------------------------------------|

e|-------------8vv----10-----------------------------------------|
B|--------8-10--------13b----------------------------------------|
G|------9--------------------------------------------------------|
D|--/10----------------------------------------------------------|
A|---------------------------------------------------------------|
E|---------------------------------------------------------------|

     Solo guitarra 2:

     No estoy muy seguro de esta parte:

     F-G-F-G-F-G
     A#-C-A#

I'm the Minister of Rock N Roll
I'll make you freak
And make you lose control
I'm the Minister of Rock N Roll
I'll make you freak
And make you lose control

A#         C
    You can call me
          G                 A#
    You know I'll be right there
             A#
    You can call me
              C
    You can call me
          G                 A#
    You know I'll be right there
             A#
    You can call me
             C
    You can call me
          G                 A#
    You know I'll be right there
             A#
    You can call me
              C
    You can call me
          G                 A#
    You know I'll be right there
             A#
    You can call me

I'm the Minister of Rock N Roll
I'll make you freak
And make you lose control
I'm the Minister of Rock N Roll
I'll make you freak
And make you lose control

¡I'm the Minister of Rock N Roll!

Está sencillita cualquier duda escríbanme a oxxorichtofen@aol.com por cierto arriba MAC
y Lenny Kravitz y el 4212 de la Voca 3 Oswaldo Díaz
Tap to rate this tab
# A B C D E F G H I J K L M N O P Q R S T U V W X Y Z