Song name
# A B C D E F G H I J K L M N O P Q R S T U V W X Y Z

Leo Kottke - The Collins Missile tab

                    .:The Collins Missile:.
                   Leo Kottke and Mike Gordon
                     From the Album "Clone"
                        Key of A major

Verse:
|------0---------------0----|------0--------------------|
|---------2------0-------3--|---------2----------2s3----|
|--1h2---------2---1--------|--1h2-------2p1------------|
|---------2----2---2--------|----------------2--(0)-----|
|--0------------------(0)---|--0---------0--------------|
|---------------------------|---------------------------|

Chorus:
|-----------------------------------|
|--9-----------5--------------------|
|--9-9-----6h7---7--7-7-------4-----|
|-------9------0------9--7--6---6---|
|--7----------------9-9-------------|
|-------5------------------(5)------|

That's pretty much it, there's a little whistle part in the outro but it sounds just as 
if you just fool around in A major.
Tap to rate this tab
 
# A B C D E F G H I J K L M N O P Q R S T U V W X Y Z