Song name
# A B C D E F G H I J K L M N O P Q R S T U V W X Y Z

Leo Kottke - Little Martha tab

Leo Kottke - Little Martha

by Idar W. (PhilLynott @ ultimate-guitar.com) I always get chocolate stains on my pants...
Tuning:DADF#AD
riff1
|-------------------12-------------------------|-----------------------------7-0-----|
|-------------------------12--------10/9-------|---------------------------7---------|
|----------12--------------------0---------0---|----------12-------------7-----------|
|-------12----12-------------12----------0-----|-------12----12--------7---------(0)-|
|----12----------12----------------------------|----12----------12---7---------------|
|-12-------------------12----------------------|-12----------------7-----------------|
  \	harmonics		/		 \	harmonics	      /

riff2						    1st ending|2nd ending
|-------------0-----------------|------------------|---------|------|
|-------------0---0-------------|------------------|---------|------|
|-0h1---3---------------1p0-----|-0h1---3(3)-------|---------|------|
|-0h2---4-----------------------|-0h2---4(4)---2(2)|-5-4-----|-4-0--|
|-0-----------------0-0-----0-0-|-----0------0-4(4)|---0-----|---0--|
|-----0---0-0---0---------------|-0----------------|---0-0-0-|---0--|


riff3
|-------------5-----------------|------------------------|
|-------5-----5---5-------------|-------5(5)-------------|
|-5h6---5---------------6p5-----|-5h6---5(5)---5---0-6-5-|
|-5h7-------5-------------------|-5h7------------------5-|
|-----5-------------5-5-----5-5-|-----5------------------|
|-5-------5-----5---------------|-5----------5---0-----5-|

riff4
|-7-5-----|------------------------------|-------------0---------------|
|-7-5-6\7-|-8p7---5---3h4p3h4p3h4(4)-----|---------------0-------------|
|-7-5-6\7-|-7-----5---3------------------|-7p6p5-----------1p0---------|
|-9-7-6\7-|-9p7-5---3-h-5p3h5p3h5(5)-5-7-|-------7p5\4---------2p0-----|
|-----8\9-|------------------------------|-------------------------2p0-|
|---------|------------------------------|-----------------------------|


riff1 x4
riff2 x2
riff3
riff2(2.end)
riff1 x2
riff2 x2
riff3
riff2(2.end)
riff4
riff2(2.end)
riff1 x4
riff2 x2
riff3
riff2(2.end)
riff1 x2
riff2 x2
riff3
riff2(2.end)
riff4
riff2(2.end)
Tap to rate this tab
# A B C D E F G H I J K L M N O P Q R S T U V W X Y Z