Song name
# A B C D E F G H I J K L M N O P Q R S T U V W X Y Z

Leona Lewis - Collide chords

Highlighted       Show chord diagrams
----------------------------------------|
                 COLLIDE - Leona Lewis--|
Tabbed by:Kamdude

Tuning:Standard

So I figured this out on piano and here it is on guitar.

Chords used:

   F#    C#      Ebm
e|--2-----4-------6-------------------------------------|
B|--2-----6-------7-------------------------------------|
G|--3-----6-------8-------------------------------------|
D|--4-----6-------8-------------------------------------|
A|--4-----4-------6-------------------------------------|
E|--2-----4-------6-------------------------------------|

Piano intro:

   F#
e|--------------2----|
B|--------2---4------|
G|----3--------------|
D|--4---4---4--------|x7
A|-------------------|
E|2------------------|

For the rest of the song this plays:

   F#
e|--------------2-------------------|
B|--------2---4---------------------|
G|----3---------------3---1---------|
D|--4---4---4-------4---4---4-3-4---|
A|----------------------------------|
E|2---------------2-----------------|


F#
Iíll pick you up when youíre down
Be there when no oneís around
When youíre in unfamiliar places
Count on me through lifeís changes

F#
Iím in tune with how you feel
Everything bout this is real
When youíre in unfamiliar places
Count on me through lifeís changes

F#, C#, Ebm

Youíre all I want, yeah yeah
I know youíre the one, yeah
Youíre all I want, yeah
I know youíre the one, yeah

F#    C#   Ebm
Crash into me
F# C#    Ebm
At full speed
F#    C#   Ebm
Crash into me
         F# C#           Ebm
We can collide, we can collide

F#, C#, Ebm

Crash into me
At full speed
We can collide, we can collide
We can collide, we can collide

F#, C#, Ebm

Crash into me
We can collide, we can collide
We can collide, we can collide

F#
When youíre in unfamiliar places
Count on me through lifeís changes

F#
Know that youíre never alone
In me you can find a home
When youíre in unfamiliar places
Count on me through lifeís changes

              F#  C#      Ebm
Youíre all I want, yeah (yeah)
              F#  C#      Ebm
Youíre all I want (oh), yeah (yeah yeah)
              F#  C#      Ebm
Youíre all I want, yeah (you are the one)
  F#              C#      Ebm
I know youíre the one, yeah (you are)

F#, C#, Ebm

Crash into me
At full speed
We can collide, we can collide
We can collide, we can collide

Crash into me
We can collide, we can collide
We can collide, we can collide

We can collide, we can collide
We can collide, we can collide
Tap to rate this tab
# A B C D E F G H I J K L M N O P Q R S T U V W X Y Z