Song name
# A B C D E F G H I J K L M N O P Q R S T U V W X Y Z

Leona Lewis - Bleeding Love tab

Bleeding Love  The Wombats

Tuning: ebgdad

INTRO:

E --------------------------------------- |
B --------------------------------------- |
G --------------------------------------- |  4x
D --------------------------------------- |
A --------------------------------------- |
D 0--0--12--10--14--12--0--0--12--10~\-- |


Verse 1 + 2 + 3:

E 2-2-2-2-2-2-2-2-2-2-2-2-2-2-2-2-----------------------2-2-|
B 3-3-3-3-3-3-3-3-3-3-3-3-3-3-3-3-----------------------0-0-|
G -----------------------------------------------------------|
D -----------------------------------------------------------|
A -----------------------------------------------------------|
D -----------------------------------------------------------|

       Closed off from love I didnt need the pain...

E 2-2-2-2-2-2-2-2-2-2-2-2-2-2----------2-2-2-2-2-2-2-2-2-2-2-|
B 0-0-0-0-0-0-0-0-0-0-0-2-2-3----------3-3-3-3-3-3-3-3-3-3-3-|
G --------------------------------------0-0-0-0-0-0-0-0-0-0-0-|
D ------------------------------------------------------------|
A ------------------------------------------------------------|
D ------------------------------------------------------------|

...Once or twice was...all in vain..     ...Time starts to..


E -2-2-2-2-0-0-0-0-0-0-0-0-0-- |
B 3-3-3-3-3-3-3-3-2-2-2-2-2-- |
G 0-0-0-0-2-2-2-2-2-2-2-2-2-- |  3x
D ---------------------------- |
A ---------------------------- |
D ---------------------------- |

INTRO 1x

Verse 4 + 5 + 6:

Trying hard not to hear..
But nothing's greater..
But I don't care what they say...

Chorus (its played like the verse)

Bridge:

e 2--------------------------3---------------------------|
b 3--------------------------3---------------------------|
g 4--------------------------4---------------------------|
d 4--------------------------5---------------------------|
a 2--------------------------5---------------------------|
d --------------------------------------------------------|

     And it's draining all of me / Oh they find it hard to

E 3--------------------------------------0---------------|
B 3--------------------------------------2---------------|
G 4--------------------------------------2---------------|
D 5--------------------------------------0---------------|
A ----------------------------------------0---------------|
D --------------------------------------------------------|

Believe / I'll be wearing these scars for everyone to see


Verse 7:

I dont care what they say...

Chorus 2x

...you cut me open.. One two three ahhh!

Intro 4x
Tap to rate this tab
# A B C D E F G H I J K L M N O P Q R S T U V W X Y Z