Song name
# A B C D E F G H I J K L M N O P Q R S T U V W X Y Z

Leona Naess - Ballerina chords

Highlighted       Show chord diagrams
C= xxx010
F= xx321x

C1x  F3x         C              F
     I'll never feel the weight of your hands
    C           F
Inside mine like diamonds
C           F
Lace so fine ballerina

C=       x32010
F=       133211
[ch]Fsus2/G[/ch]= 3x301x
Am=      x02210
Em/G=    3x200x
Em7=     022030
Dm7(no3) xx053x
G/B=     x2000x
Cadd9=   x3203x

C               F
Cupcake and my earthquake
C                 F
Wakes me from my sleep that
C               F
Never comes are you breathing
C               Dm7(no3)
Waiting for me

                  C      [ch]Fsus2/G[/ch]
I didn't really want you
        C            [ch]Fsus2/G[/ch]
But I want you now
         C            [ch]Fsus2/G[/ch]
Was so foolish of me
                Am
To feel you tumbling down
               Em/G
Into that empty room
        F
The lights went out
             Em7                 Dm7(no3)
I want to rescue want to scream out loud

                   C        [ch]Fsus2/G[/ch]
I didn't think i needed you
        C           [ch]Fsus2/G[/ch]
But I need you now
         C         [ch]Fsus2/G[/ch]
Was so empty in me
               Am
To feel you crashing down
           Em/G
Into the empty world
      F
The music stops
             Em7               Dm7(no3)
I want to rescue want to scream out loud
                   C 2x  G/B C
You will always be mine


F 3x            C 1x            F
The room spins. pull you from me My body burns
C         F
Tell me of the rainbows
    C          F
The colors that the rain throws
Cadd9       F
Ballerina dance softly
    C         F
She knows when to come only
Cadd9          F
When she's called I'm slowly
C         Dm7(no3)
Coming to

            C           [ch]Fsus2/G[/ch]
I didn't really want you
        C          [ch]Fsus2/G[/ch]
But I need you
          C         [ch]Fsus2/G[/ch]
Was so foolish of me
            Am
Feel you tumbling down
             Em/G
Into that empty world
      F
The lights went out
             Em7                     Dm7(no3)
I want to rescue want to scream out loud

                   C          [ch]Fsus2/G[/ch]
I didn't think i needed  you
        C            [ch]Fsus2/G[/ch]
But I need you now
         C         [ch]Fsus2/G[/ch]
Was so empty in me
               Am
To feel you crashing down
            Em/G
Into that empty world
      F
The music stops
             Em7                     Dm7(no3)
I want to rescue want to scream out loud
                   C 2x  G/B 2x
You will always be mine


BRIDGE(2:58)

e|-17--15--13--12---12--10--10-----8--0---------12-|
B|-17--17--15--13---12--10--10-----8--1------13----|
G|-17--16--14--12---12--10--10-----9--2---14-------|
D|------------------------------------3------------|
A|-------------------------------------------------|
E|------------------------------------1------------|
   So, so   sor-ry  Just come back for me now

e|-17--15--13--12---12--10--10-----8--0---------|
B|-17--17--15--13---12--10--10-----8--1------13-|
G|-17--16--14--12---12--10--10-----9--2---14----|
D|------------------------------------3---------|
A|----------------------------------------------|
E|------------------------------------1---------|
   So, so   sor-ry  Just come back to me now


e|-12---------------12-------------|
B|-13--10--10--10---13--10--10--10-|
G|-12--10--10--10---12--10--10--10-|
D|-----10--10--10-------10--10--10-|
A|---------------------------------|
E|---------------------------------|

-----12-----------------12------------------|
--15----15--13--10--15----15--13--10-10--10-|
----------------10----------------10-10--10-|
----------------10----------------0--0---0--|
--------------------------------------------|
--------------------------------------------|

            C           [ch]Fsus2/G[/ch]
I didn't really want you
        C          [ch]Fsus2/G[/ch]
But I need you
          C         [ch]Fsus2/G[/ch]
Was so foolish of me
            Am
Feel you tumbling down
             Em/G
Into that empty room
      F
The lights went out
             Em7                     Dm7(no3)
I want to rescue want to scream out loud

                   C          [ch]Fsus2/G[/ch]
I didn't think i needed  you
       C           [ch]Fsus2/G[/ch]
But I need you now
         C        [ch]Fsus2/G[/ch]
Was so empty in me
            Am
Feel you tumbling down
             Em/G
Into that empty room
      F
The lights went out
             Em7                 Dm7(no3)
I want to rescue want to scream out loud
                       C 2x  G/B 2x C
But you will always be mine

I hope this chord chart/tab helps.  Its not exact, but pretty close for those wishing to 
play the piano piece on guitar.
Tap to rate this tab
# A B C D E F G H I J K L M N O P Q R S T U V W X Y Z