Song name
# A B C D E F G H I J K L M N O P Q R S T U V W X Y Z

Leonard Cohen - The Partisan tab

Leonard Cohen - The Partisan  transcription by MyDarkPassenger

standard tuning - p (pouce/thumb) i (index) m (majeur/middle)

e:-------------------------------------|------------------------------------|
B:-------0--------0--------0--------0--|-------0--------0--------0--------0-|
G:----0--------0--------0--------0-----|----0--------0--------0--------0----|
D:-------------------2-----------------|-------------------2----------------|
A:----------2-----------------2--------|----------2-----------------2-------|
E:-0-----------------------------------|-0----------------------------------|
   p  i  m  p  i  m  p  i  m  p  i  m    p  i  m  p  i  m  p  i  m  p  i  m


e:-------------------------------------|------------------------------------|
B:-------0--------0--------0--------0--|-------0--------0--------0--------0-|
G:----0--------0--------0--------0-----|----0--------0--------0--------0----|
D:-------------------2-----------------|------------------------------------|
A:----------2-----------------2--------|----------2-----------------2-------|
E:-0-----------------------------------|-3-----------------2----------------|


e:-------------------------------------|------------------------------------|
B:-------0--------0--------0--------0--|-------0--------0--------0--------0-|
G:----0--------0--------0--------0-----|----0--------0--------0--------0----|
D:-------------------2-----------------|------------------------------------|
A:----------2-----------------2--------|----------2-----------------2-------|
E:-0-----------------------------------|-3-----------------2----------------|


e:-------------------------------------|------------------------------------|
B:-------0--------0--------0--------0--|-------0--------0--------0--------0-|
G:----0--------0--------0--------0-----|----0--------0--------0--------0----|
D:-------------------2-----------------|-------------------2----------------|
A:----------2-----------------2--------|----------2-----------------2-------|
E:-0-----------------------------------|-0----------------------------------|


e:-------2--------2--------2--------3--|-------0--------0--------0--------0-|
B:----3--------3--------3--------3-----|----1--------1--------1--------1----|
G:----------2-----------------2--------|----------0-----------------0-------|
D:-0-----------------0-----------------|-2-----------------2----------------|
A:-------------------------------------|------------------------------------|
E:-------------------------------------|------------------------------------|


e:-------------------------------------|------------------------------------|
B:-------0--------0--------0--------0--|-------0--------0--------0--------0-|
G:----0--------0--------0--------0-----|----0--------0--------0--------0----|
D:-------------------------------------|-------------------2----------------|
A:----------2-----------------2--------|----------2-----------------2-------|
E:-3-----------------2-----------------|-0----------------------------------|


This is my first tab. I'm sure it's not accurate but the versions that can be found on 
net don't sound good to me.
Tap to rate this tab
 
# A B C D E F G H I J K L M N O P Q R S T U V W X Y Z