Song name
# A B C D E F G H I J K L M N O P Q R S T U V W X Y Z

Leonard Cohen - The Partisan tab

-------------------------------------------------------------------------------
			     The Partisan - Leonard Cohen
-------------------------------------------------------------------------------
Tabbed by: Joseph Harari
Email: neutraljuicehotel@gmail.com

Tuning: Normal, Capo on the 2nd fret

Just use any arpegio you like, I like this one but switch it as much as you like, just 
use the same chords





    Em
e|---------------------------------------------------------------------------|
B|--------------0---------------------0------------------0-------------------|
G|---------0-------0---0---------0------0---0--------0-----0---0-------------|
D|-------2---2-------2---------2---2------2--------2---2-----2---------------|
A|---------------------------------------------------------------------------|
E|---0----------------------0-------------------0----------------------------|

   G           D          Em                 G         D        Em
    When I poured...              I was cautioned...
e|------------------------------------------------------------------------------|
B|----------0--------0-------------0---------------0---------0----------0-------|
G|--------0--------0-----------0-----0---0-------0---------0--------0-----0---0-|
D|------0--------0-----------2---2-----2-------0---------0--------2---2-----2---|
A|------------------------------------------------------------------------------|
E|---3---------2-----------0-----------------3---------2--------0---------------|

    G                       D
    This I could not do
e|-----------------------------------2----------------2------------------------|
B|-----------0-------------------3-----3---3------3-----3---3------------------|
G|-------0-----0----0----------2---2-----2------2---2-----2--------------------|
D|-----0---0------0----------0----------------0--------------------------------|
A|-----------------------------------------------------------------------------|
E|---3-------------------------------------------------------------------------|

     C                                    G
     I took my gun and vanished
e|------------0----------------0----------------------------------------------|
B|--------1-----1---1------1-----1---1-------------0--------------------------|
G|------0---0-----0------0---0-----0-----------0-----0---0--------------------|
D|-------------------------------------------0---0-----0----------------------|
A|---3-----------------3------------------------------------------------------|
E|-----------------------------------------3----------------------------------|


     G        D          Em
e|---------------------------------------------------------------------------|
B|---------0--------0--------------0------------------0----------------------|
G|-------0--------0------------0-----0---0--------0-----0---0----------------|
D|-----0--------0------------2---2-----2--------2---2-----2------------------|
A|---------------------------------------------------------------------------|
E|---3--------2------------0------------------0------------------------------|

Repeat. Like I said, you can use any arpeggio you want, or you can just strum
(and hammer on whenever needed, of course). Enjoy.
Tap to rate this tab
# A B C D E F G H I J K L M N O P Q R S T U V W X Y Z