Song name
# A B C D E F G H I J K L M N O P Q R S T U V W X Y Z

Leonard Cohen - Guests tab

Leonard Cohen - The Guests

Intro:

e ---------------------…
B --------5-----5------…
G --------0-----0------…
D -----6-----6-----6---…       4x
A --7------------------…
E ---------------------…

e ---------------------------------------------------------------------------|
B --------5-----5-----------5-----5-----------3-----3-----------3-----3------|
G --------0-----0-----------0-----0-----------0-----0-----------0-----0------|
D -----6-----6-----6-----6-----6-----6-----4-----4-----4-----4-----4-----4---|
A --7-----------------7-----------------5-----------------5------------------|
E ---------------------------------------------------------------------------|
    One by            one               The Guests        arrive

e ---------------------------------------------------------------------------|
B --------1-----1-----------1-----1-----------3-----3-----------3-----3------|
G --------0-----0-----------0-----0-----------0-----0-----------0-----0------|
D -----2-----2-----2-----2-----2-----2-----4-----4-----4-----4-----4-----4---|
A --3-----------------3-----------------5-----------------5------------------|
E ---------------------------------------------------------------------------|
    The Guests are    coming            through

e ---------------------------------------------------------------------------|
B --------5-----5-----------5-----5-----------3-----3-----------3-----3------|
G --------0-----0-----------0-----0-----------0-----0-----------0-----0------|
D -----6-----6-----6-----6-----6-----6-----4-----4-----4-----4-----4-----4---|
A --7-----------------7-----------------5-----------------5------------------|
E ---------------------------------------------------------------------------|
    The open     -    hearted           many

e ---------------------------------------------------------------------------|
B --------1-----1-----------1-----1-----------0-----0-----------0-----0------|
G --------0-----0-----------0-----0-----------1-----1-----------1-----1------|
D -----2-----2-----2-----2-----2-----2-----2-----2-----2-----2-----2-----2---|
A --3-----------------3-----------------2-----------------2------------------|
E ---------------------------------------------------------------------------|
    The broken    -   hearted           few

Chorus:

e --------------------------------------------2-----2-----------2-----2------|
B --------2-----2-----------2-----2-----------3-----3-----------3-----3------|
G --------2-----2-----------2-----2--------2-----2-----2-----2-----2-----2---|
D -----2-----2-----2-----2-----2-----2--0-----------------0------------------|
A --0-----------------0------------------------------------------------------|
E ---------------------------------------------------------------------------|
    And no one        knows, where the  night          is going

e --------------------------------------------2-----2-----------2-----2------|
B --------2-----2-----------2-----2-----------3-----3-----------3-----3------|
G --------2-----2-----------2-----2--------2-----2-----2-----2-----2-----2---|
D -----2-----2-----2-----2-----2-----2--0-----------------0------------------|
A --0-----------------0------------------------------------------------------|
E ---------------------------------------------------------------------------|
    And no one        knows, why the    wine is           flowing

e ------------------------…
B --------1-----1---------…
G --------0-----2---------…
D -----2-----2-----2------…
A --3-----------------3---…
E ------------------------…
    Oh                    love, I need you, I need you, I need you

e-----------------------------------------…
B --------0-----0------------0-----0------…
G --------1-----1------------1-----1------…
D -----2-----2-----2------2-----2-----2---…
A --2------------------2------------------…
E ----------------------------------------…
    Oh

e ---------------------------------------------------------…
B --------0-----0-----------2-----2-----------2-----2------…
G --------1-----1-----------2-----2-----------2-----2------…
D -----2-----2-----2-----2-----2-----2-----2-----2-----2---…
A --2-----------------0-----------------0------------------…
E ---------------------------------------------------------…
    I need you        now


And those who dance begin to dance
And those who weep begin
And, Welcome, Welcome cries a Voice,
Let all my guests come in

chorus

And all go stumbling through that house
In lonely secrecy
Saying, Do reveal yourself
Or, Why has thou forsaken me

chorus

All at once the touches flare
The inner door flies open
One by one they enter there
In every style of passion

chorus

And here they take their sweet repast
While house and grounds dissolve
And one by one The Guests are cast
Beyond the garden walls

chorus

And those who dance begin to dance
Those who weep begin
And those who earnestly are lost
Are lost and lost again

chorus

One by one The Guest arrive
The Guest are coming through
The broken-hearted many
The open-hearted few

chorus

Ich denk ma das mόsste so passen. Also viel Spaί damit.
MfG Tobi
Tap to rate this tab
# A B C D E F G H I J K L M N O P Q R S T U V W X Y Z