Song name
# A B C D E F G H I J K L M N O P Q R S T U V W X Y Z

Lergrev - Drawing In The Waters tab

                                                       
                                                                   
Drawing in the Waters
As recorded by Lergrev
(From the 2007 Album WINTER SEASONS)

Transcribed by Morbid



                          H        H           H        H         
D#||-------------------|--------------------|--------------------|
A#||-------------------|--------------------|--------------------|
F#||-------------------|--------------------|--------------------|
C#||-------------------|--4--------L--------|--L--------L--------|
G#||-------------------|--1--------L--------|--L--------L--------|
C#||-------------------|--1--------L--------|--L--------L--------|


  H        H           H        H           H        H         
--------------------|--------------------|--------------------|
--------------------|--------------------|--------------------|
--------------------|--------------------|--------------------|
--3--------L--------|--L--------L--------|--4--------L--------|
--1--------L--------|--L--------L--------|--1--------L--------|
--1--------L--------|--L--------L--------|--1--------L--------|


  H        H           H        H           H        H         
--------------------|--------------------|--------------------|
--------------------|--------------------|--------------------|
--------------------|--------------------|--------------------|
--L--------L--------|--3--------L--------|--L--------L--------|
--L--------L--------|--1--------L--------|--L--------L--------|
--L--------L--------|--1--------L--------|--L--------L--------|


  H        H           H        H           H        H         
--------------------|--------------------|--------------------|
--------------------|--------------------|--------------------|
--------------------|--------------------|--------------------|
--1--------L--------|--L--------L--------|--0--------L--------|
--1--------L--------|--L--------L--------|--0--------L--------|
--1--------L--------|--L--------L--------|--0--------L--------|


  H        H           H        H           H        H         
--------------------|--------------------|--------------------|
--------------------|--------------------|--------------------|
--------------------|--------------------|--------------------|
--L--------L--------|--4--------L--------|--L--------L--------|
--L--------L--------|--1--------L--------|--L--------L--------|
--L--------L--------|--1--------L--------|--L--------L--------|


  H        H           H        H           H        H         
--------------------|--------------------|--------------------|
--------------------|--------------------|--------------------|
--------------------|--------------------|--------------------|
--3--------L--------|--L--------L--------|--4--------L--------|
--1--------L--------|--L--------L--------|--1--------L--------|
--1--------L--------|--L--------L--------|--1--------L--------|


  H        H           H        H           H        H         
--------------------|--------------------|--------------------|
--------------------|--------------------|--------------------|
--------------------|--------------------|--------------------|
--L--------L--------|--3--------L--------|--L--------L--------|
--L--------L--------|--1--------L--------|--L--------L--------|
--L--------L--------|--1--------L--------|--L--------L--------|


  H        H           H        H           H        H         
--------------------|--------------------|--------------------|
--------------------|--------------------|--------------------|
--------------------|--------------------|--------------------|
--1--------L--------|--L--------L--------|--0--------L--------|
--1--------L--------|--L--------L--------|--0--------L--------|
--1--------L--------|--L--------L--------|--0--------L--------|


  H        H           S S S S S S S S S S S S S S S S  
--------------------|----------------------------------|
--------------------|----------------------------------|
--------------------|----------------------------------|
--L--------L--------|--4-4-4-4-4-4-4-4-4-4-4-4-4-4-4-4-|
--L--------L--------|--1-1-1-1-1-1-1-1-1-1-1-1-1-1-1-1-|
--L--------L--------|--1-1-1-1-1-1-1-1-1-1-1-1-1-1-1-1-|


  S S S S S S S S S S S S S S S S    S S S S S S S S S S S S S S S S  
----------------------------------|----------------------------------|
----------------------------------|----------------------------------|
----------------------------------|----------------------------------|
--3-3-3-3-3-3-3-3-3-3-3-3-3-3-3-3-|--4-4-4-4-4-4-4-4-4-4-4-4-4-4-4-4-|
--1-1-1-1-1-1-1-1-1-1-1-1-1-1-1-1-|--1-1-1-1-1-1-1-1-1-1-1-1-1-1-1-1-|
--1-1-1-1-1-1-1-1-1-1-1-1-1-1-1-1-|--1-1-1-1-1-1-1-1-1-1-1-1-1-1-1-1-|


  S S S S S S S S S S S S S S S S    S S S S S S S S S S S S S S S S  
----------------------------------|----------------------------------|
----------------------------------|----------------------------------|
----------------------------------|----------------------------------|
--3-3-3-3-3-3-3-3-3-3-3-3-3-3-3-3-|----------------------------------|
--1-1-1-1-1-1-1-1-1-1-1-1-1-1-1-1-|--4-4-4-4-4-4-4-4-4-4-4-4-4-4-4-4-|
--1-1-1-1-1-1-1-1-1-1-1-1-1-1-1-1-|--1-1-1-1-1-1-1-1-1-1-1-1-1-1-1-1-|


  S S S S S S S S S S S S S S S S    S S S S S S S S S S S S S S S S  
----------------------------------|----------------------------------|
----------------------------------|----------------------------------|
----------------------------------|----------------------------------|
----------------------------------|----------------------------------|
--2-2-2-2-2-2-2-2-2-2-2-2-2-2-2-2-|--1-1-1-1-1-1-1-1-1-1-1-1-1-1-1-1-|
--1-1-1-1-1-1-1-1-1-1-1-1-1-1-1-1-|--1-1-1-1-1-1-1-1-1-1-1-1-1-1-1-1-|


  S S S S S S S S S S S S S S S S    S S S S S S S S S S S S S S S S  
----------------------------------|----------------------------------|
----------------------------------|----------------------------------|
----------------------------------|----------------------------------|
--4-4-4-4-4-4-4-4-4-4-4-4-4-4-4-4-|--3-3-3-3-3-3-3-3-3-3-3-3-3-3-3-3-|
--1-1-1-1-1-1-1-1-1-1-1-1-1-1-1-1-|--1-1-1-1-1-1-1-1-1-1-1-1-1-1-1-1-|
--1-1-1-1-1-1-1-1-1-1-1-1-1-1-1-1-|--1-1-1-1-1-1-1-1-1-1-1-1-1-1-1-1-|


  S S S S S S S S S S S S S S S S    S S S S S S S S S S S S S S S S  
----------------------------------|----------------------------------|
----------------------------------|----------------------------------|
----------------------------------|----------------------------------|
--4-4-4-4-4-4-4-4-4-4-4-4-4-4-4-4-|--3-3-3-3-3-3-3-3-3-3-3-3-3-3-3-3-|
--1-1-1-1-1-1-1-1-1-1-1-1-1-1-1-1-|--1-1-1-1-1-1-1-1-1-1-1-1-1-1-1-1-|
--1-1-1-1-1-1-1-1-1-1-1-1-1-1-1-1-|--1-1-1-1-1-1-1-1-1-1-1-1-1-1-1-1-|


  S S S S S S S S S S S S S S S S    S S S S S S S S S S S S S S S S  
----------------------------------|----------------------------------|
----------------------------------|----------------------------------|
----------------------------------|----------------------------------|
----------------------------------|----------------------------------|
--4-4-4-4-4-4-4-4-4-4-4-4-4-4-4-4-|--2-2-2-2-2-2-2-2-2-2-2-2-2-2-2-2-|
--1-1-1-1-1-1-1-1-1-1-1-1-1-1-1-1-|--1-1-1-1-1-1-1-1-1-1-1-1-1-1-1-1-|


  S S S S S S S S S S S S S S S S      S S S S S S S S S S S S S S S S  
----------------------------------||-----------------------------------|
----------------------------------||-----------------------------------|
----------------------------------||*----------------------------------|
----------------------------------||*--3-3-3-3-3-3-3-3-3-3-3-3-3-3-3-3-|
--1-1-1-1-1-1-1-1-1-1-1-1-1-1-1-1-||---0-0-0-0-0-0-0-0-0-0-0-0-0-0-0-0-|
--1-1-1-1-1-1-1-1-1-1-1-1-1-1-1-1-||-----------------------------------|


  S S S S S S S S S S S S S S S S    S S S S S S S S S S S S S S S S  
----------------------------------|----------------------------------|
----------------------------------|----------------------------------|
----------------------------------|----------------------------------|
--3-3-3-3-3-7-7-7-2-2-2-2-2-2-2-2-|--2-2-2-2-2-2-2-2-2-2-2-2-2-2-2-2-|
--0-0-0-0-0-0-0-0-0-0-0-0-0-0-0-0-|--0-0-0-0-0-0-0-0-0-0-0-0-0-0-0-0-|
----------------------------------|----------------------------------|


  S S S S S S S S S S S S S S S S    S S S S S S S S S S S S S S S S  
----------------------------------|----------------------------------|
----------------------------------|----------------------------------|
----------------------------------|----------------------------------|
--3-3-3-3-3-3-3-3-3-3-3-3-3-3-3-3-|--3-3-3-3-3-7-7-7-2-2-2-2-2-2-2-2-|
--0-0-0-0-0-0-0-0-0-0-0-0-0-0-0-0-|--0-0-0-0-0-0-0-0-0-0-0-0-0-0-0-0-|
----------------------------------|----------------------------------|


  S S S S S S S S S S S S S S S S    S S S S S S S S S S S S S S S S  
----------------------------------|----------------------------------|
----------------------------------|----------------------------------|
----------------------------------|----------------------------------|
--2-2-2-2-2-2-2-2-2-2-2-2-2-2-2-2-|--3-3-3-3-3-3-3-3-3-3-3-3-3-3-3-3-|
--0-0-0-0-0-0-0-0-0-0-0-0-0-0-0-0-|--0-0-0-0-0-0-0-0-0-0-0-0-0-0-0-0-|
----------------------------------|----------------------------------|


  S S S S S S S S S S S S S S S S    S S S S S S S S S S S S S S S S  
----------------------------------|----------------------------------|
----------------------------------|----------------------------------|
----------------------------------|----------------------------------|
--3-3-3-3-3-7-7-7-2-2-2-2-2-2-2-2-|--2-2-2-2-2-2-2-2-2-2-2-2-2-2-2-2-|
--0-0-0-0-0-0-0-0-0-0-0-0-0-0-0-0-|--0-0-0-0-0-0-0-0-0-0-0-0-0-0-0-0-|
----------------------------------|----------------------------------|


  S S S S S S S S S S S S S S S S    S S S S S S S S S S S S S S S S  
----------------------------------|----------------------------------|
----------------------------------|----------------------------------|
----------------------------------|----------------------------------|
--3-3-3-3-3-3-3-3-3-3-3-3-3-3-3-3-|--3-3-3-3-3-7-7-7-2-2-2-2-2-2-2-2-|
--0-0-0-0-0-0-0-0-0-0-0-0-0-0-0-0-|--0-0-0-0-0-0-0-0-0-0-0-0-0-0-0-0-|
----------------------------------|----------------------------------|


  S S S S S S S S S S S S S S S S    S S S S S S S S S S S S S S S S  
----------------------------------|----------------------------------|
----------------------------------|----------------------------------|
----------------------------------|--------5-5-5-------5-5-5-------5-|
--2-2-2-2-2-2-2-2-2-2-2-2-2-2-2-2-|--3-3-3-3-3-3-3-3-3-3-3-3-3-3-3-3-|
--0-0-0-0-0-0-0-0-0-0-0-0-0-0-0-0-|--0-0-0-0-0-0-0-0-0-0-0-0-0-0-0-0-|
----------------------------------|----------------------------------|


  S S S S S S S S S S S S S S S S    S S S S S S S S S S S S S S S S  
----------------------------------|----------------------------------|
----------------------------------|----------------------------------|
--5-5-------9-9-9-4-4-4-----------|----------------------------------|
--3-3-3-3-3-7-7-7-2-2-2-2-2-2-2-2-|--2-2-2-2-2-2-2-2-2-2-2-2-2-2-2-2-|
--0-0-0-0-0-0-0-0-0-0-0-0-0-0-0-0-|--0-0-0-0-0-0-0-0-0-0-0-0-0-0-0-0-|
----------------------------------|----------------------------------|


  S S S S S S S S S S S S S S S S    S S S S S S S S S S S S S S S S  
----------------------------------|----------------------------------|
----------------------------------|----------------------------------|
----------------------------------|----------------------------------|
--3-3-3-3-3-3-3-3-3-3-3-3-3-3-3-3-|--3-3-3-3-3-7-7-7-2-2-2-2-2-2-2-2-|
--0-0-0-0-0-0-0-0-0-0-0-0-0-0-0-0-|--0-0-0-0-0-0-0-0-0-0-0-0-0-0-0-0-|
----------------------------------|----------------------------------|


  S S S S S S S S S S S S S S S S       S S S S S S S S S S S S S S S S  
-----------------------------------||-----------------------------------|
-----------------------------------||-----------------------------------|
----------------------------------*||*----------------------------------|
--2-2-2-2-2-2-2-2-2-2-2-2-2-2-2-2-*||*--3-3-3-3-3-3-3-3-3-3-3-3-3-3-3-3-|
--0-0-0-0-0-0-0-0-0-0-0-0-0-0-0-0--||---0-0-0-0-0-0-0-0-0-0-0-0-0-0-0-0-|
-----------------------------------||-----------------------------------|


  S S S S S S S S S S S S S S S S    S S S S S S S S S S S S S S S S  
----------------------------------|----------------------------------|
----------------------------------|----------------------------------|
----------------------------------|----------------------------------|
--3-3-3-3-3-7-7-7-2-2-2-2-2-2-2-2-|--2-2-2-2-2-2-2-2-2-2-2-2-2-2-2-2-|
--0-0-0-0-0-0-0-0-0-0-0-0-0-0-0-0-|--0-0-0-0-0-0-0-0-0-0-0-0-0-0-0-0-|
----------------------------------|----------------------------------|


  S S S S S S S S S S S S S S S S    S S S S S S S S S S S S S S S S  
----------------------------------|----------------------------------|
----------------------------------|----------------------------------|
----------------------------------|----------------------------------|
--3-3-3-3-3-3-3-3-3-3-3-3-3-3-3-3-|--3-3-3-3-3-7-7-7-2-2-2-2-2-2-2-2-|
--0-0-0-0-0-0-0-0-0-0-0-0-0-0-0-0-|--0-0-0-0-0-0-0-0-0-0-0-0-0-0-0-0-|
----------------------------------|----------------------------------|


  S S S S S S S S S S S S S S S S      S S S S S S S S S S S S S S S S  
-----------------------------------||----------------------------------|
-----------------------------------||----------------------------------|
----------------------------------*||----------------------------------|
--2-2-2-2-2-2-2-2-2-2-2-2-2-2-2-2-*||--3-3-3-3-3-3-3-3-3-3-3-3-3-3-3-3-|
--0-0-0-0-0-0-0-0-0-0-0-0-0-0-0-0--||--0-0-0-0-0-0-0-0-0-0-0-0-0-0-0-0-|
-----------------------------------||----------------------------------|


  S S S S S S S S S S S S S S S S    S S S S S S S S S S S S S S S S  
----------------------------------|----------------------------------|
----------------------------------|----------------------------------|
----------------------------------|----------------------------------|
--3-3-3-3-3-7-7-7-2-2-2-2-2-2-2-2-|--2-2-2-2-2-2-2-2-2-2-2-2-2-2-2-2-|
--0-0-0-0-0-0-0-0-0-0-0-0-0-0-0-0-|--0-0-0-0-0-0-0-0-0-0-0-0-0-0-0-0-|
----------------------------------|----------------------------------|


  S S S S S S S S S S S S S S S S    S S S S S S S S S S S S S S S S  
----------------------------------|----------------------------------|
----------------------------------|----------------------------------|
----------------------------------|----------------------------------|
--3-3-3-3-3-3-3-3-3-3-3-3-3-3-3-3-|--3-3-3-3-3-7-7-7-2-2-2-2-2-2-2-2-|
--0-0-0-0-0-0-0-0-0-0-0-0-0-0-0-0-|--0-0-0-0-0-0-0-0-0-0-0-0-0-0-0-0-|
----------------------------------|----------------------------------|


  S S S S S S S S S S S S S S S S    W                                          
----------------------------------|-------------------|-------------------|----|
----------------------------------|-------------------|-------------------|----|
----------------------------------|-------------------|-------------------|----|
--2-2-2-2-2-2-2-2-2-2-2-2-2-2-2-2-|--3----------------|-------------------|----|
--0-0-0-0-0-0-0-0-0-0-0-0-0-0-0-0-|--0----------------|-------------------|----|
----------------------------------|-------------------|-------------------|----|




End Final Riff

    S S S S S S S S S S S S S S S S    S S S S S S S S S S S S S S S S  
|-----------------------------------|----------------------------------|
|-----------------------------------|----------------------------------|
|*--7-7-7-7-7-7-7-7-7-7-7-7-7-7-7-7-|--7-7-7-7-7-7-7-7-7-7-7-7-7-7-7-7-|
|*--8-8-8-8-8-8-8-8-8-8-8-8-8-8-8-8-|--8-8-8-8-8-8-8-8-8-8-8-8-8-8-8-8-|
|---5-5-5-5-5-5-5-5-5-5-5-5-5-5-5-5-|--5-5-5-5-5-5-5-5-5-5-5-5-5-5-5-5-|
|-----------------------------------|----------------------------------|


  S S S S S S S S S S S S S S S S    S S S S S S S S S S S S S S S S  
----------------------------------|----------------------------------|
----------------------------------|----------------------------------|
--7-7-7-7-7-7-7-7-7-7-7-7-7-7-7-7-|--7-7-7-7-7-7-7-7-7-7-7-7-7-7-7-7-|
--7-7-7-7-7-7-7-7-7-7-7-7-7-7-7-7-|--7-7-7-7-7-7-7-7-7-7-7-7-7-7-7-7-|
--5-5-5-5-5-5-5-5-5-5-5-5-5-5-5-5-|--5-5-5-5-5-5-5-5-5-5-5-5-5-5-5-5-|
----------------------------------|----------------------------------|


  S S S S S S S S S S S S S S S S    S S S S S S S S S S S S S S S S  
----------------------------------|----------------------------------|
----------------------------------|----------------------------------|
--7-7-7-7-7-7-7-7-7-7-7-7-7-7-7-7-|--7-7-7-7-7-7-7-7-7-7-7-7-7-7-7-7-|
--8-8-8-8-8-8-8-8-8-8-8-8-8-8-8-8-|--8-8-8-8-8-8-8-8-8-8-8-8-8-8-8-8-|
--5-5-5-5-5-5-5-5-5-5-5-5-5-5-5-5-|--5-5-5-5-5-5-5-5-5-5-5-5-5-5-5-5-|
----------------------------------|----------------------------------|


  S S S S S S S S S S S S S S S S    S S S S S S S S S S S S S S S S  
----------------------------------|----------------------------------|
----------------------------------|----------------------------------|
--7-7-7-7-7-7-7-7-7-7-7-7-7-7-7-7-|--7-7-7-7-7-7-7-7-7-7-7-7-7-7-7-7-|
--7-7-7-7-7-7-7-7-7-7-7-7-7-7-7-7-|--7-7-7-7-7-7-7-7-7-7-7-7-7-7-7-7-|
--5-5-5-5-5-5-5-5-5-5-5-5-5-5-5-5-|--5-5-5-5-5-5-5-5-5-5-5-5-5-5-5-5-|
----------------------------------|----------------------------------|


  S S S S S S S S S S S S S S S S    S S S S S S S S S S S S S S S S  
----------------------------------|----------------------------------|
----------------------------------|----------------------------------|
--7-7-7-7-7-7-7-7-7-7-7-7-7-7-7-7-|--7-7-7-7-7-7-7-7-7-7-7-7-7-7-7-7-|
--8-8-8-8-8-8-8-8-8-8-8-8-8-8-8-8-|--8-8-8-8-8-8-8-8-8-8-8-8-8-8-8-8-|
--5-5-5-5-5-5-5-5-5-5-5-5-5-5-5-5-|--5-5-5-5-5-5-5-5-5-5-5-5-5-5-5-5-|
----------------------------------|----------------------------------|


  S S S S S S S S S S S S S S S S    S S S S S S S S S S S S S S S S  
----------------------------------|----------------------------------|
----------------------------------|----------------------------------|
--7-7-7-7-7-7-7-7-7-7-7-7-7-7-7-7-|--7-7-7-7-7-7-7-7-7-7-7-7-7-7-7-7-|
--7-7-7-7-7-7-7-7-7-7-7-7-7-7-7-7-|--7-7-7-7-7-7-7-7-7-7-7-7-7-7-7-7-|
--5-5-5-5-5-5-5-5-5-5-5-5-5-5-5-5-|--5-5-5-5-5-5-5-5-5-5-5-5-5-5-5-5-|
----------------------------------|----------------------------------|


  S S S S S S S S S S S S S S S S    S S S S S S S S S S S S S S S S  
----------------------------------|----------------------------------|
----------------------------------|----------------------------------|
--7-7-7-7-7-7-7-7-7-7-7-7-7-7-7-7-|--7-7-7-7-7-7-7-7-7-7-7-7-7-7-7-7-|
--8-8-8-8-8-8-8-8-8-8-8-8-8-8-8-8-|--8-8-8-8-8-8-8-8-8-8-8-8-8-8-8-8-|
--5-5-5-5-5-5-5-5-5-5-5-5-5-5-5-5-|--5-5-5-5-5-5-5-5-5-5-5-5-5-5-5-5-|
----------------------------------|----------------------------------|


  S S S S S S S S S S S S S S S S    S S S S S S S S S S S S S S S S    
----------------------------------|-----------------------------------||
----------------------------------|-----------------------------------||
--7-7-7-7-7-7-7-7-7-7-7-7-7-7-7-7-|--7-7-7-7-7-7-7-7-7-7-7-7-7-7-7-7-*||
--7-7-7-7-7-7-7-7-7-7-7-7-7-7-7-7-|--7-7-7-7-7-7-7-7-7-7-7-7-7-7-7-7-*||
--5-5-5-5-5-5-5-5-5-5-5-5-5-5-5-5-|--5-5-5-5-5-5-5-5-5-5-5-5-5-5-5-5--||
----------------------------------|-----------------------------------||



Duration Legend
---------------
W - whole
H - half
Q - quarter
E - 8th
S - 16th
T - 32nd
X - 64th
. - note dotted
|-n-|  - n-tuplets
Tap to rate this tab
 
# A B C D E F G H I J K L M N O P Q R S T U V W X Y Z