Song name
# A B C D E F G H I J K L M N O P Q R S T U V W X Y Z

Leroy Anderson - Sleigh Ride tab

Sleigh Ride was written in 1946 by Leroy Anderson. Lyrics were later added by Mitchell Parish.

Here is a version I made, because I couldn't find any on the 'net. Enjoy!

Standard tuning (EADBGE)

MAIN RIFF:

1-1-1-1-3-1----------------------------1-3-1--------------------------|
------------3---------3----------------------3-1---1-1-3-1------------|
--------------3-----5---5-2-0--------------------3---------3---3hold--|
------------------------------3hold--------------------------5--------|
----------------------------------------------------------------------|
----------------------------------------------------------------------|

X2

----------------------------------------------------------------------|
-----------------------------5-2hold------3-2-------------------------|
-------4---------4---------4-----------------2---4hold----------------|
-5p4h5-----5p4h5-----5p4h5---------------------4----------------------|
----------------------------------------------------------------------|
----------------------------------------------------------------------|

------------0---------------------------------------------------------|
2-------3-2-----------------------------------------------------------|
--40-04-------2-------------------------------------------------------|
----------------------------------------------------------------------|
----2-----------------------------------------------------------------|
----------------------------------------------------------------------|

----------------------------------------------------------------------|
-------------------3---------1-0--------------------------------------|
------2----------2---4hold-------0--2hold-----------------------------|
-3p2h3-----3p2h3------------------2-----------------------------------|
----------------------------------------------------------------------|
----------------------------------------------------------------------|

MINI-BRIDGE:

----------------------------------------------------------------------|
1----------------1----------1-----------------------------------------|
---0------------0--0-----0-----0--------------------------------------|
----3-------3---------3-3---------------------------------------------|
-------3---------------3----------------------------------------------|
----------------------------------------------------------------------|

...and repeat as needed!
Tap to rate this tab
 
# A B C D E F G H I J K L M N O P Q R S T U V W X Y Z