Song name
# A B C D E F G H I J K L M N O P Q R S T U V W X Y Z

Leroy Lee - Drawing Smoke tab

Drawing Smoke

DADF#BE (The recording is down a semitone)

Verse: I could see her clearly through the smoke......
|----------------|----------------|----------------|----------------| 
|----------------|----------------|----------------|----------------| 
|--0--0-----0----|--0--0-----0----|--0--0-----0----|--0--0-----0----| 
|--0--0-----0----|--2--2-----0----|--0--0-----0----|--2--2-----0----| 
|--2-----2-------|--0-----0-------|--2-----2-------|--0-----0-------| 
|----------------|----------------|----------------|----------------|



|----------------|----------------|----------------|----------------| 
|----------------|----------------|----------------|----------------| 
|--3p0-3-----0---|----------------|--3p0-3-----0---|----------------| 
|--0---0-----0---|----------------|--0---0-----0---|----------------| 
|----------------|----------------|----------------|----------------| 
|--5------5------|--5------5------|--5------5------|--5------5------|



|----------------|----------------| 
|----------------|----------------|
|--0--0-----0----|--0--0-----0----|
|--0--0-----0----|--2--2-----0----|
|--2-----2-------|--0-----0-------| 
|----------------|----------------|

                                              note: the second time round, play (4)-----(4)

|----------------|----------------|----------------|----------------| 
|----------------|----------------|----------------|----------------| 
|--3p0-3-----0---|----------------|--3p0-3-----0---|----------------| 
|--0---0-----0---|----------------|--0---0-----0---|----------------| 
|----------------|----------------|----------------|----------------| 
|--5------5------|--5------5------|--5------5------|--5(4)---5(4)---| x2 



So, into the nether we go....                                       Note: [12]Harmonic on the 12th

|----------------|----------------|----------------|----------------| 
|----------------|----------------|----------------|----------------| 
|--3--3-----3----|--2--2----------|--1p0-----[12]--|----------------| 
|--3--3-----3----|--0--0-----2p0--|------0---[12]--|-----------2p0--| 
|----------------|--2--2----------|----------------|----------------| 
|--3-----3-------|--2-----2-------|--0-----0-------|--0-----0-------|


|----------------|----------------|
|----------------|----------------|
|--1p0-----[12]--|----------------|
|------0---[12]--|-------------0--| 
|----------------|----------------|
|--0------0------|--0------0------|

|----------------|----------------|----------------|----------------| 
|----------------|----------------|----------------|----------------| 
|--3--3-----3----|--2--2-----2----|--1--1-----1----|--1--1----------| 
|--3--3-----3----|--0--0-----0----|--3--3-----3----|--3--3-----2p0--| 
|----------------|--2--2-----2----|--1-----1-------|--3-----1-------| 
|--3-----3-------|--2-----2-------|----------------|----------------|


|----------------|----------------|
|----------------|----------------|
|--1p0-----[12]--|----------------|
|------0---[12]--|-----------2p0--| 
|----------------|----------------|
|--0------0------|--0------0------|

Bridge: Sleeping where we don't belong

|----------------|----------------|----------------|----------------| 
|--3-------------|---2------------|---3------------|----------------| 
|-----3----------|------3---------|------3---------|--5-------------| 
|--------0-------|--------2-------|--------0-------|--0-------------|  x2
|--2-------------|---0------------|--(2)-----------|----------------|
|----------------|----------------|--(4)-----------|--5-----5-5-5-5-|


(2) first time
(4) second time

Tap to rate this tab
 
# A B C D E F G H I J K L M N O P Q R S T U V W X Y Z