Song name
# A B C D E F G H I J K L M N O P Q R S T U V W X Y Z

Les Choristes - Vois Sur Ton Chemin tab

    Vois sur ton chemin ... (Bonheurs enfantin ...)
E|--5-5-5-1-3---3-3-3---1-1-3-5--1-1-1-----3-1---5-1----------|
B|--------------------5----------------3-5-----5-----5-3-5-2-3|
G|------------------------------------------------------------|
D|------------------------------------------------------------|
A|------------------------------------------------------------|
E|------------------------------------------------------------|


    Sens au coer ...   
E|-------3-1---1-3-1-------3-1---5-----------|
B|--3-3------5-------5-3-3-----5---3-5-3-2-3-|
G|-------------------------------------------|
D|-------------------------------------------|
A|-------------------------------------------|
E|-------------------------------------------|
Tap to rate this tab
# A B C D E F G H I J K L M N O P Q R S T U V W X Y Z