Song name
# A B C D E F G H I J K L M N O P Q R S T U V W X Y Z

Les Choristes - Caresses Sur Locan tab

                           Caresses sur l'Océan                              


                               Les Choristes


                                                            
E||--5----8----6----8----|--3----1----3--------|--3--------6----5----|
B||----------------------|---------------------|---------------------|
G||----------------------|---------------------|---------------------|
D||----------------------|---------------------|---------------------|
A||----------------------|---------------------|---------------------|
E||----------------------|---------------------|---------------------|


                                                         
--3----1----0----1----|-----------------3----|--1----0---------3----|
----------------------|--3----5----6---------|------------3---------|
----------------------|----------------------|----------------------|
----------------------|----------------------|-----------------5----|
----------------------|----------------------|----------------------|
----------------------|----------------------|----------------------|


                                                           
--5----8----6----8----|--3----1----3--------|--10-----8----6----5----|
----------------------|---------------------|------------------------|
----------------------|---------------------|------------------------|
----------------------|---------------------|--12----10----8----7----|
----------------------|---------------------|------------------------|
----------------------|---------------------|------------------------|


                                                          
--3--1--10-------------|-------0----1---------|--5--------3--------|
--------------3--------|--3--------------3----|--------------------|
-----------------------|----------------------|--------------------|
--------12-------------|----------------------|--------------------|
--------------5--------|----------------------|--------------------|
-----------------------|----------------------|--------------------|


                                                         
-------0----1----0----|--1----0----1----3----|--1----0----1----0----|
--3-------------------|----------------------|----------------------|
----------------------|----------------------|----------------------|
----------------------|----------------------|----------------------|
----------------------|----------------------|----------------------|
----------------------|----------------------|----------------------|


                                                         
--0----1----3----5----|--3----5----3----5----|--8----3----1----3----|
----------------------|----------------------|----------------------|
----------------------|----------------------|----------------------|
----------------------|----------------------|----------------------|
----------------------|----------------------|----------------------|
----------------------|----------------------|----------------------|


                                                           
--1----3----1----10----|---L----------------|----------------------|
-----------------------|--------------------|----------------------|
-----------------------|--------------------|--2----5----3----5----|
-----------------12----|---L----------------|----------------------|
-----------------------|--------------------|----------------------|
-----------------------|--------------------|----------------------|


                                                         
---------------------|----------------------|---------------------|
---------------------|----------------------|---------------------|
--0---------0--------|--0----3----2----0----|---------------------|
-------3-------------|----------------------|--3----2----3--------|
---------------------|----------------------|---------------------|
---------------------|----------------------|---------------------|


                                                                 
----------------------|----------------------|------------------------------|
----------------------|----------------------|------------------------------|
-----------------0----|-----------------0----|------------------------------|
--0----2----3---------|--3----2----0---------|------------------------------|
----------------------|----------------------|------------------------------|
----------------------|----------------------|--(3)----(5)----(6)----(8)----|


                                                           
-------8--------------|---------------------|--10-----8----6----5----|
----------------------|---------------------|------------------------|
--2----5----3----5----|--0---------0--------|------------------------|
----------------------|-------3-------------|--12----10----8----7----|
----------------------|---------------------|------------------------|
----------------------|---------------------|------------------------|


                                                          
--3--1--10-------------|----------------------|--5--------3--------|
--------------3--------|----------------------|--------------------|
-----------------------|----------------------|--2--------0--------|
--------12-------------|-------2----3----0----|--------------------|
--------------5--------|--5-------------------|--------------------|
-----------------------|----------------------|--------------------|


                                                         
-------0----1----0----|--1----0----1----3----|--1----0----1----0----|
--3-------------------|----------------------|----------------------|
----------------------|----------------------|----------------------|
----------------------|----------------------|----------------------|
----------------------|----------------------|----------------------|
----------------------|----------------------|----------------------|


                                                         
--0----1----3----5----|--3----5----3----5----|--8----3----1----3----|
----------------------|----------------------|----------------------|
----------------------|----------------------|----------------------|
----------------------|----------------------|----------------------|
----------------------|----------------------|----------------------|
----------------------|----------------------|----------------------|


                                                              
--1----3----1----10----|--------------------|--13----12----10----8----|
-----------------------|--------------------|-------------------------|
-----------------------|--------------------|-------------------------|
-----------------12----|--------------------|-------------------------|
-----------------------|--------------------|-------------------------|
-----------------------|--------------------|-------------------------|


                             F                      
                                             
--8----10----5----3----|--1--1--------||
-----------------------|-----1--------||
-----------------------|-----2--------||
-----------------------|-----3--------||
-----------------------|-----3--------||
-----------------------|-----1--------||



Tap to rate this tab
# A B C D E F G H I J K L M N O P Q R S T U V W X Y Z