Song name
# A B C D E F G H I J K L M N O P Q R S T U V W X Y Z

Les Choristes - Vois Sur Ton Chemin tab

                                Les Choristes
                             

Vois sur ton chemin




                                                            
E||--0----0----5----3----|--2----3----2----5----|--3----2----0----0----|
B||----------------------|----------------------|----------------------|
G||----------------------|----------------------|----------------------|
D||----------------------|----------------------|----------------------|
A||----------------------|----------------------|----------------------|
E||----------------------|----------------------|----------------------|


                                                     Em   Em   Am    
                                                         
--5----2----7----3----|--2----0----2---------|-------0----0----0----|
----------------------|-----------------5----|--4----0----0----1----|
----------------------|----------------------|-------0----0----2----|
----------------------|----------------------|-------2----2----2----|
----------------------|----------------------|-------2----2----0----|
----------------------|----------------------|-------0----0---------|


  Am        G                                                        
                                                         
--0----0----3----2----|--5----3----2----0----|--7----7----7----3----|
--1----0----0---------|----------------------|----------------------|
--2----0----0---------|----------------------|----------------------|
--2---------0---------|----------------------|----------------------|
--0---------2---------|----------------------|----------------------|
------------3---------|----------------------|----------------------|


                                                         
--5--------5----5----|--5----2----3----3----|--5----7----3----3----|
---------------------|----------------------|----------------------|
---------------------|----------------------|----------------------|
---------------------|----------------------|----------------------|
---------------------|----------------------|----------------------|
---------------------|----------------------|----------------------|


                                                         
--3----0----2----5----|--3----2----7----3----|--2----0----2---------|
----------------------|----------------------|-----------------5----|
----------------------|----------------------|----------------------|
----------------------|----------------------|----------------------|
----------------------|----------------------|----------------------|
----------------------|----------------------|----------------------|


       Em   Am   G                      Em     
                                       
-------0----0----3----|--2----0---------0----||
--4----0----1----0----|------------4----0----||
-------0----2----0----|-----------------0----||
-------2----2----0----|-----------------2----||
-------2----0----2----|-----------------2----||
-------0---------3----|-----------------0----||




Tap to rate this tab
# A B C D E F G H I J K L M N O P Q R S T U V W X Y Z