Song name
# A B C D E F G H I J K L M N O P Q R S T U V W X Y Z

Les Claypool And The Holy Mackerel - George E Porge tab

All by ear... it's pretty accurate...
Intro
e|-----------------------------0~---------0~---------|
B|-----------------------------0~---------0~---------|
G|---------11------------------1~-----7---1~---------|
D|-----------12--12-11-9-7-6---2~-6h7-----2~---------|
A|x11h12-12----12------------7-2~-------7-2~---------|
E|-----------------------------0~---------0~-7-5-4-5~|

Verse                  Fill
e|--------------------|-----|
B|-9/-9-7-4-2-x-------|---0-|
G|-9/-9-7-4-2-x-4-3/4-|-3b--|
D|-9/-9-7-4-2-x-5-4/5-|-----|
A|--------------5-4/5-|-----|
E|--------------3-2/3-|-----|

Fill after first verse 
e|--------------------------|
B|--------------------------|
G|---15-13-10------10-------|
D|-14---------12-12---12-12-|
A|--------------------------|
E|--------------------------|

Now, he's a sport and she's a... 
e|----------|
B|----------|
G|--9-7-----|
D|-9----9//-|
A|----------|
E|----------|

Solo  (twangy)                            x2
e|-----------------------2--x-2-2-|---------------|
B|----------2-0-----------3-x-3-3-|11\10-10-10/11-|
G|-3~-----3-----0h1---------------|9\-8--8--8/-9--|
D|----1h2----------0-0h2----------|---------------|
A|----------------------2---------|---------------|
E|--------------------------------|---------------|

e|---------------------|-------------------|
B|--------7-5-7-5-2-0--|-------------------|
G|-8/11-8-7-5-7-5-2-0--|-----3v-4v-5v/6v-8v|
D|--------7-5-7-5-2-0--|-2/5~--------------|
A|---------------------|-------------------|
E|---------------------|-------------------|

e|----------------------------------------|
B|-17b-0-------------------------------0--|
G|-----0----1-1------1-1---0-1-0-1-0-1b---|
D|--------2-2-2-2--2-2-2-2-0-1-0-1-0------|
A|--------2-----2--2-----2----------------|
E|----------------------------------------|

e|--------------------------------------------|
B|--------------------------------------------|
G|---1-1---0-1-0-1-0---1-1--/8/-11/14/-17v~~--|
D|-2-2-2-2-0-1-0-1-0-2-2-2-2/-9/-12/15/-18v~~-|
A|-2-----2-----------2-----2/-----------------|
E|--------------------------------------------|

Outro                                          Variation
e|--------------------------------------------|----------|
B|---------------------------------------5b---|----------|
G|--------6b--------3b--------6b--------------|-10-9-7-4-|
D|--------------------------------------------|----------|
A|-2-2-------2-2-------2-2-------2-2----------|----------|
E|-----3-2-------3-2-------3-2-------3-2------|----------|

That's pretty much it. It looks hard but if you know the song it's not so bad. Joe 
Gore is a pretty good guitarist. Only the best from the Holy Mackerel.
Tap to rate this tab
 
# A B C D E F G H I J K L M N O P Q R S T U V W X Y Z