Song name
# A B C D E F G H I J K L M N O P Q R S T U V W X Y Z

Les Cowboys Fringants - Mon Chum Rumi tab

Mon Chum Rmi
Les Cowboys Fringants

Intro

   C              Am              Em           G
e---------0---------------0-------------0------------3--------|
b-1---------1-----0h1-------1-----0-------0----3-------3------|
g----0--------0-------2-------2-----0-------0----0-------0----|
D-------2---------------2-------------2------------0----------|
A-3---------------0----------------------------2--------------|
E---------------------------------0---------------------------|

Couplets

   C              Am              Em           G
e---------0---------------0-------------0------------3--------|
b-1---------1-----0h1-------1-----0-------0----3-------3------|
g----0--------0-------2-------2-----0-------0----0-------0----| x4
D-------2---------------2-------------2------------0----------|
A-3---------------0----------------------------2--------------|
E---------------------------------0---------------------------|
Donne moi tes..Tu Pte la... T'es ben trop..Pour chauff ta minoune

   F             C               G             C
e--------1---------------0-------------3---------------0-------|
b--1-------1-----1---------1-----3-------3-----1---------1-----|
g----2-------2------0--------0-----0-------0------0--------0---|
D------3---------------2-------------0---------------2---------|
A--3-------------3---------------2-------------3---------------|
E--------------------------------------------------------------|
En plus j'aurais pu personne...

   F             C               G             C
e--------1---------------0-------------3----------------------|
b--1-------1-----1---------1-----3-------3-----1--------------|
g----2-------2------0--------0-----0-------0------------------|
D------3---------------2-------------0------------------------|
A--3-------------3---------------2-------------3--------------|
E-------------------------------------------------------------|
Qui viendrait...

Refrain

   C            G            Am
e--------0------------3---------------0------------|
b--1-------1----3-------3-----0h1-------1---1------|
g----0-------0----0-------0-------2-------2--------|
D------2------------0---------------2--------------|
A--3------------2-------------0--------------------|
E--------------------------------------------------|
Heille Rmi,    Fait po d'conneries

   C            G            Am
e--------0------------3---------------------------|
b--1-------1----3-------3-----1-------------------|
g----0-------0----0-------0-----------------------|
D------2------------0-----------------------------|
A--3------------2-------------3-------------------|
E-------------------------------------------------|
J't'aime ben la face...
Tap to rate this tab
# A B C D E F G H I J K L M N O P Q R S T U V W X Y Z