Les Discrets - Septembre Et Ses Dernieres Pensees tab

this is played throughout the entire song:

e|--------------------------------|
B|-----1-----1------1------1------|
G|--3-----3-----1------0----------|
D|--------------------------------|
A|--------------------------------|
E|--------------------------------|

e|--------------------------------|
B|-----1-----1------1------1------|
G|--3-----3-----1------1----------|
D|--------------------------------|
A|--------------------------------|
E|--------------------------------|

Tap to rate this tab
 
# A B C D E F G H I J K L M N O P Q R S T U V W X Y Z