Les Discrets - Effet De Nuit tab

--------------------------------
Les Discrets - Effet De Nuit
--------------------------------
Tabbed by: Markus Rafferty
Email: stairsleadingup@gmail.com

Tuning: Eb Ab Db Gb Bb eb



e|--0---0--0--0---0---0--0--0---0---0--0--0---0---0--0--0--|
B|-12--12-12-12--12--12-12-12--12--12-12-12--12--12-12-12--|
G|-11--11-11-11--11--11-11-11--11--11-11-11--11--11-11-11--|
D|--9---9--9--9---9---9--9--9---9---9--9--9---9---9--9--9--|
A|--x---x--x--x---x---x--x--x---x---x--x--x---x---x--x--x--|
E|--0---0--0--0---0---0--0--0---0---0--0--0---0---0--0--0--|

e|--0---0--0--0---0---0--0--0---0---0--0--0---0---0--0--0--|
B|-10--10-10-10--10--10-10-10--10--10-10-10--10--10-10-10--|
G|-11--11-11-11--11--11-11-11---9---9--9--9---9---9--9--9--|
D|-12--12-12-12--12--12-12-12--10--10-10-10--10--10-10-10--|
A|--x---x--x--x---x---x--x--x---x---x--x--x---x---x--x--x--|
E|--0---0--0--0---0---0--0--0---0---0--0--0---0---0--0--0--|



e|-----------0---------------------------------------------0-----------------|
B|-----------0---------------------------------------------0-----------------|
G|-----------0---------------------------------------------0-----------------|
D|-2-----2-2-------2-2---2-------1-1-1---1-1-1---2-----2-2-------2-2---2-----|
A|-2-----2-2-------2-2---2-------3-3-3---3-3-3---2-----2-2-------2-2---2-----|
E|-0-----0-0-------0-0---0-----------------------0-----0-0-------0-0---0-----|
                                 x x     x x

e|-0-----------------------------0-------------------------------------------|
B|---0---0---0-----0-------------0-------------------------------------------|
G|-----5-------5-----------------0-------------------------------------------|
D|---------2-----------2-----2-2-------2-2---2-------1-1-1---1-1-1-----------|
A|---------------------2-----2-2-------2-2---2-------3-3-3---3-3-3---1-------|
E|---------------------0-----0-0-------0-0---0-----------------------3-------|
                                                     x x     x x

e|-----------------------------------------|
B|-----------------------------------------|
G|-----------------------------------------|
D|-----------------------------/3---2---0--|
A|---1-1-1-------1-1-2------2-2------------|
E|---3-3-3-------3-3-2------2-2------------|
		 x x        x x



e|--0---0---0---0---0---0---0---0---0---0---0---0--0--0--0---0------0--0---0-|
B|-12--12--12--12--12--12--12--12--12--12--12--12-12-12\11-\11-----12\11--12-|
G|-11--11--11--11--11--11--11--11--11--11--11--11-11-11-p8--p8-----11-p8--11-|
D|--9---9---9---9---9---9---9---9---9---9---9---9--9--9-\8--\8------9-\8---9-|
A|--x---x---x---x---x---x---x---x---x---x---x---x--x--x--x---x------x--x---x-|
E|--0---0---0---0---0---0---0---0---0---0---0---0--0--0--0---0------0--0---0-|



e|-------------12------------------12------------------12---------|
B|---------10------10----------10------10----------10------10-----|
G|-----11------------------11------------------11--------------11-|
D|--9------------------10-----------------------------------------|
A|----------------------------------------------------------------|
E|----------------------------------------------------------------|



e|--x--------x------x-x--------x----x----------------------------------------|
B|--0--------0------0-0--------0----0----------------------------------------|
G|--0--------0------0-0--------0----0--[listen-closely-for-the-rhythm-here]--|
D|--4--------5------2-4-------12----9----------------------------------------|
A|--4--------5------2-4-------12----9----------------------------------------|
E|--2--------3------0-2-------10----7----------------------------------------|
Tap to rate this tab
 
# A B C D E F G H I J K L M N O P Q R S T U V W X Y Z